  0
SECTION
  2
HEADER
  9
$ACADVER
  1
AC1015
  9
$ACADMAINTVER
 70
     6
  9
$DWGCODEPAGE
  3
ANSI_1254
  9
$INSBASE
 10
0.0
 20
0.0
 30
0.0
  9
$EXTMIN
 10
0.0
 20
0.0
 30
0.0
  9
$EXTMAX
 10
279.4
 20
215.9
 30
0.0
  9
$LIMMIN
 10
0.0
 20
0.0
  9
$LIMMAX
 10
279.4
 20
215.9
  9
$ORTHOMODE
 70
     0
  9
$REGENMODE
 70
     1
  9
$FILLMODE
 70
     1
  9
$QTEXTMODE
 70
     0
  9
$MIRRTEXT
 70
     1
  9
$LTSCALE
 40
1.0
  9
$ATTMODE
 70
     1
  9
$TEXTSIZE
 40
3.5
  9
$TRACEWID
 40
1.0
  9
$TEXTSTYLE
  7
Standard
  9
$CLAYER
  8
0
  9
$CELTYPE
  6
ByLayer
  9
$CECOLOR
 62
   256
  9
$CELTSCALE
 40
1.0
  9
$DISPSILH
 70
     0
  9
$DIMSCALE
 40
1.0
  9
$DIMASZ
 40
3.5
  9
$DIMEXO
 40
1.0
  9
$DIMDLI
 40
3.75
  9
$DIMRND
 40
0.0
  9
$DIMDLE
 40
0.0
  9
$DIMEXE
 40
1.0
  9
$DIMTP
 40
0.0
  9
$DIMTM
 40
0.0
  9
$DIMTXT
 40
2.8222222222
  9
$DIMCEN
 40
2.5
  9
$DIMTSZ
 40
0.0
  9
$DIMTOL
 70
     0
  9
$DIMLIM
 70
     0
  9
$DIMTIH
 70
     1
  9
$DIMTOH
 70
     1
  9
$DIMSE1
 70
     0
  9
$DIMSE2
 70
     0
  9
$DIMTAD
 70
     1
  9
$DIMZIN
 70
     0
  9
$DIMBLK
  1

  9
$DIMASO
 70
     1
  9
$DIMSHO
 70
     1
  9
$DIMPOST
  1

  9
$DIMAPOST
  1

  9
$DIMALT
 70
     0
  9
$DIMALTD
 70
     3
  9
$DIMALTF
 40
0.0393700787
  9
$DIMLFAC
 40
1.0
  9
$DIMTOFL
 70
     1
  9
$DIMTVP
 40
0.0
  9
$DIMTIX
 70
     0
  9
$DIMSOXD
 70
     0
  9
$DIMSAH
 70
     0
  9
$DIMBLK1
  1

  9
$DIMBLK2
  1

  9
$DIMSTYLE
  2
ISO-25
  9
$DIMCLRD
 70
     0
  9
$DIMCLRE
 70
     0
  9
$DIMCLRT
 70
     0
  9
$DIMTFAC
 40
1.0
  9
$DIMGAP
 40
1.524
  9
$DIMJUST
 70
     0
  9
$DIMSD1
 70
     0
  9
$DIMSD2
 70
     0
  9
$DIMTOLJ
 70
     0
  9
$DIMTZIN
 70
     0
  9
$DIMALTZ
 70
     0
  9
$DIMALTTZ
 70
     0
  9
$DIMUPT
 70
     0
  9
$DIMDEC
 70
     2
  9
$DIMTDEC
 70
     2
  9
$DIMALTU
 70
     2
  9
$DIMALTTD
 70
     3
  9
$DIMTXSTY
  7
Standard
  9
$DIMAUNIT
 70
     0
  9
$DIMADEC
 70
     2
  9
$DIMALTRND
 40
0.0
  9
$DIMAZIN
 70
     0
  9
$DIMDSEP
 70
    44
  9
$DIMATFIT
 70
     3
  9
$DIMFRAC
 70
     0
  9
$DIMLDRBLK
  1

  9
$DIMLUNIT
 70
     2
  9
$DIMLWD
 70
    -2
  9
$DIMLWE
 70
    -2
  9
$DIMTMOVE
 70
     0
  9
$LUNITS
 70
     2
  9
$LUPREC
 70
     2
  9
$SKETCHINC
 40
1.0
  9
$FILLETRAD
 40
10.0
  9
$AUNITS
 70
     0
  9
$AUPREC
 70
     2
  9
$MENU
  1
.
  9
$ELEVATION
 40
0.0
  9
$PELEVATION
 40
0.0
  9
$THICKNESS
 40
0.0
  9
$LIMCHECK
 70
     0
  9
$CHAMFERA
 40
0.0
  9
$CHAMFERB
 40
0.0
  9
$CHAMFERC
 40
0.0
  9
$CHAMFERD
 40
0.0
  9
$SKPOLY
 70
     0
  9
$TDCREATE
 40
2460087.497621111
  9
$TDUCREATE
 40
2460087.372621111
  9
$TDUPDATE
 40
2460087.497621424
  9
$TDUUPDATE
 40
2460087.372621424
  9
$TDINDWG
 40
0.0000000116
  9
$TDUSRTIMER
 40
0.0000000116
  9
$USRTIMER
 70
     1
  9
$ANGBASE
 50
0.0
  9
$ANGDIR
 70
     0
  9
$PDMODE
 70
     0
  9
$PDSIZE
 40
-1.0
  9
$PLINEWID
 40
0.0
  9
$SPLFRAME
 70
     0
  9
$SPLINETYPE
 70
     6
  9
$SPLINESEGS
 70
     8
  9
$HANDSEED
  5
124
  9
$SURFTAB1
 70
     6
  9
$SURFTAB2
 70
     6
  9
$SURFTYPE
 70
     6
  9
$SURFU
 70
     6
  9
$SURFV
 70
     6
  9
$UCSBASE
  2

  9
$UCSNAME
  2

  9
$UCSORG
 10
0.0
 20
0.0
 30
0.0
  9
$UCSXDIR
 10
1.0
 20
0.0
 30
0.0
  9
$UCSYDIR
 10
0.0
 20
1.0
 30
0.0
  9
$UCSORTHOREF
  2

  9
$UCSORTHOVIEW
 70
     0
  9
$UCSORGTOP
 10
0.0
 20
0.0
 30
0.0
  9
$UCSORGBOTTOM
 10
0.0
 20
0.0
 30
0.0
  9
$UCSORGLEFT
 10
0.0
 20
0.0
 30
0.0
  9
$UCSORGRIGHT
 10
0.0
 20
0.0
 30
0.0
  9
$UCSORGFRONT
 10
0.0
 20
0.0
 30
0.0
  9
$UCSORGBACK
 10
0.0
 20
0.0
 30
0.0
  9
$PUCSBASE
  2

  9
$PUCSNAME
  2

  9
$PUCSORG
 10
0.0
 20
0.0
 30
0.0
  9
$PUCSXDIR
 10
1.0
 20
0.0
 30
0.0
  9
$PUCSYDIR
 10
0.0
 20
1.0
 30
0.0
  9
$PUCSORTHOREF
  2

  9
$PUCSORTHOVIEW
 70
     0
  9
$PUCSORGTOP
 10
0.0
 20
0.0
 30
0.0
  9
$PUCSORGBOTTOM
 10
0.0
 20
0.0
 30
0.0
  9
$PUCSORGLEFT
 10
0.0
 20
0.0
 30
0.0
  9
$PUCSORGRIGHT
 10
0.0
 20
0.0
 30
0.0
  9
$PUCSORGFRONT
 10
0.0
 20
0.0
 30
0.0
  9
$PUCSORGBACK
 10
0.0
 20
0.0
 30
0.0
  9
$USERI1
 70
     0
  9
$USERI2
 70
     0
  9
$USERI3
 70
     0
  9
$USERI4
 70
     0
  9
$USERI5
 70
     0
  9
$USERR1
 40
0.0
  9
$USERR2
 40
0.0
  9
$USERR3
 40
0.0
  9
$USERR4
 40
0.0
  9
$USERR5
 40
0.0
  9
$WORLDVIEW
 70
     1
  9
$SHADEDGE
 70
     3
  9
$SHADEDIF
 70
    70
  9
$TILEMODE
 70
     1
  9
$MAXACTVP
 70
    64
  9
$PINSBASE
 10
0.0
 20
0.0
 30
0.0
  9
$PLIMCHECK
 70
     0
  9
$PEXTMIN
 10
1.0000000000E+20
 20
1.0000000000E+20
 30
1.0000000000E+20
  9
$PEXTMAX
 10
-1.0000000000E+20
 20
-1.0000000000E+20
 30
-1.0000000000E+20
  9
$PLIMMIN
 10
0.0
 20
0.0
  9
$PLIMMAX
 10
420.0
 20
297.0
  9
$UNITMODE
 70
     0
  9
$VISRETAIN
 70
     1
  9
$PLINEGEN
 70
     0
  9
$PSLTSCALE
 70
     1
  9
$TREEDEPTH
 70
  3020
  9
$CMLSTYLE
  2
Standard
  9
$CMLJUST
 70
     0
  9
$CMLSCALE
 40
20.0
  9
$PROXYGRAPHICS
 70
     1
  9
$MEASUREMENT
 70
     1
  9
$CELWEIGHT
370
    -1
  9
$ENDCAPS
280
     0
  9
$JOINSTYLE
280
     0
  9
$LWDISPLAY
290
     1
  9
$INSUNITS
 70
     4
  9
$HYPERLINKBASE
  1

  9
$STYLESHEET
  1

  9
$XEDIT
290
     1
  9
$CEPSNTYPE
380
     0
  9
$PSTYLEMODE
290
     1
  9
$FINGERPRINTGUID
  2
{126c2158-1aba-4cd6-bd76-1061a4352d05}
  9
$VERSIONGUID
  2
{FAEB1C32-E019-11D5-929B-00C0DF256EC4}
  9
$EXTNAMES
290
     1
  9
$PSVPSCALE
 40
0.0
  9
$OLESTARTUP
290
     0
  0
ENDSEC
  0
SECTION
  2
CLASSES
  0
CLASS
  1
ACDBDICTIONARYWDFLT
  2
AcDbDictionaryWithDefault
  3
ObjectDBX Classes
 90
        0
280
     0
281
     0
  0
CLASS
  1
VISUALSTYLE
  2
AcDbVisualStyle
  3
ObjectDBX Classes
 90
     4095
280
     0
281
     0
  0
CLASS
  1
MATERIAL
  2
AcDbMaterial
  3
ObjectDBX Classes
 90
     1153
280
     0
281
     0
  0
CLASS
  1
SCALE
  2
AcDbScale
  3
ObjectDBX Classes
 90
     1153
280
     0
281
     0
  0
CLASS
  1
TABLESTYLE
  2
AcDbTableStyle
  3
ObjectDBX Classes
 90
     4095
280
     0
281
     0
  0
CLASS
  1
MLEADERSTYLE
  2
AcDbMLeaderStyle
  3
ACDB_MLEADERSTYLE_CLASS
 90
     4095
280
     0
281
     0
  0
CLASS
  1
SUN
  2
AcDbSun
  3
SCENEOE
 90
     1153
280
     0
281
     0
  0
CLASS
  1
ACDBPLACEHOLDER
  2
AcDbPlaceHolder
  3
ObjectDBX Classes
 90
        0
280
     0
281
     0
  0
CLASS
  1
LAYOUT
  2
AcDbLayout
  3
ObjectDBX Classes
 90
        0
280
     0
281
     0
  0
ENDSEC
  0
SECTION
  2
TABLES
  0
TABLE
  2
VPORT
  5
8
330
0
100
AcDbSymbolTable
 70
     1
  0
VPORT
  5
29
330
8
100
AcDbSymbolTableRecord
100
AcDbViewportTableRecord
  2
*Active
 70
     0
 10
0.0
 20
0.0
 11
1.0
 21
1.0
 12
139.7
 22
107.95
 13
0.0
 23
0.0
 14
10.0
 24
10.0
 15
10.0
 25
10.0
 16
0.0
 26
0.0
 36
1.0
 17
0.0
 27
0.0
 37
0.0
 40
215.9
 41
1.2941176471
 42
50.0
 43
0.0
 44
0.0
 50
0.0
 51
0.0
 71
     0
 72
  2000
 73
     1
 74
     3
 75
     0
 76
     0
 77
     0
 78
     0
281
     0
 65
     1
110
0.0
120
0.0
130
0.0
111
1.0
121
0.0
131
0.0
112
0.0
122
1.0
132
0.0
 79
     0
146
0.0
  0
ENDTAB
  0
TABLE
  2
LTYPE
  5
5
330
0
100
AcDbSymbolTable
 70
     6
  0
LTYPE
  5
14
330
5
100
AcDbSymbolTableRecord
100
AcDbLinetypeTableRecord
  2
ByBlock
 70
     0
  3

 72
    65
 73
     0
 40
0.0
  0
LTYPE
  5
15
330
5
100
AcDbSymbolTableRecord
100
AcDbLinetypeTableRecord
  2
ByLayer
 70
     0
  3

 72
    65
 73
     0
 40
0.0
  0
LTYPE
  5
16
330
5
100
AcDbSymbolTableRecord
100
AcDbLinetypeTableRecord
  2
Continuous
 70
     0
  3
Solid line
 72
    65
 73
     0
 40
0.0
  0
LTYPE
  5
6E
330
5
100
AcDbSymbolTableRecord
100
AcDbLinetypeTableRecord
  2
HIDDEN
 70
     0
  3
Hidden __ __ __ __ __ __ __ __ __ __ __ __ __ __
 72
    65
 73
     2
 40
1.905
 49
1.27
 74
     0
 49
-0.635
 74
     0
  0
LTYPE
  5
6F
330
5
100
AcDbSymbolTableRecord
100
AcDbLinetypeTableRecord
  2
PHANTOM
 70
     0
  3
Phantom ______  __  __  ______  __  __  ______
 72
    65
 73
     6
 40
12.7
 49
6.35
 74
     0
 49
-1.27
 74
     0
 49
1.27
 74
     0
 49
-1.27
 74
     0
 49
1.27
 74
     0
 49
-1.27
 74
     0
  0
LTYPE
  5
70
330
5
100
AcDbSymbolTableRecord
100
AcDbLinetypeTableRecord
  2
CENTER
 70
     0
  3
Center ____ _ ____ _ ____ _ ____ _ ____ _ ____
 72
    65
 73
     4
 40
10.16
 49
6.35
 74
     0
 49
-1.27
 74
     0
 49
1.27
 74
     0
 49
-1.27
 74
     0
  0
LTYPE
  5
71
330
5
100
AcDbSymbolTableRecord
100
AcDbLinetypeTableRecord
  2
CENTERX2
 70
     0
  3
Center (2x) ________  __  ________  __  _____
 72
    65
 73
     4
 40
20.32
 49
12.7
 74
     0
 49
-2.54
 74
     0
 49
2.54
 74
     0
 49
-2.54
 74
     0
  0
LTYPE
  5
72
330
5
100
AcDbSymbolTableRecord
100
AcDbLinetypeTableRecord
  2
DOT2
 70
     0
  3
Dot (.5x) ........................................
 72
    65
 73
     2
 40
0.635
 49
0.0
 74
     0
 49
-0.635
 74
     0
  0
ENDTAB
  0
TABLE
  2
LAYER
  5
2
330
0
100
AcDbSymbolTable
 70
    17
  0
LAYER
  5
10
330
2
100
AcDbSymbolTableRecord
100
AcDbLayerTableRecord
  2
0
 70
     0
 62
     7
  6
Continuous
370
    -3
390
F
  0
LAYER
  5
73
330
2
100
AcDbSymbolTableRecord
100
AcDbLayerTableRecord
  2
FORMAT
 70
     0
 62
     7
  6
Continuous
370
    -3
390
F
  0
LAYER
  5
74
330
2
100
AcDbSymbolTableRecord
100
AcDbLayerTableRecord
  2
YARDIMCI_GEOMETRI
 70
     0
 62
    -6
  6
Continuous
290
     0
370
    -3
390
F
  0
LAYER
  5
75
330
2
100
AcDbSymbolTableRecord
100
AcDbLayerTableRecord
  2
SAYFA_CERCEVESI
 70
     0
 62
     7
  6
Continuous
370
    25
390
F
  0
LAYER
  5
76
330
2
100
AcDbSymbolTableRecord
100
AcDbLayerTableRecord
  2
ANTET
 70
     0
 62
     7
  6
Continuous
370
    -3
390
F
  0
LAYER
  5
77
330
2
100
AcDbSymbolTableRecord
100
AcDbLayerTableRecord
  2
OLCU
 70
     0
 62
   150
  6
Continuous
370
    -3
390
F
  0
LAYER
  5
78
330
2
100
AcDbSymbolTableRecord
100
AcDbLayerTableRecord
  2
METIN
 70
     0
 62
    96
  6
Continuous
370
    -3
390
F
  0
LAYER
  5
79
330
2
100
AcDbSymbolTableRecord
100
AcDbLayerTableRecord
  2
BALON
 70
     0
 62
     5
  6
Continuous
370
    -3
390
F
  0
LAYER
  5
7A
330
2
100
AcDbSymbolTableRecord
100
AcDbLayerTableRecord
  2
VURGU
 70
     0
 62
     7
  6
Continuous
370
    -3
390
F
  0
LAYER
  5
7B
330
2
100
AcDbSymbolTableRecord
100
AcDbLayerTableRecord
  2
SILIK
 70
     0
 62
     7
  6
Continuous
370
    -3
390
F
  0
LAYER
  5
7C
330
2
100
AcDbSymbolTableRecord
100
AcDbLayerTableRecord
  2
MODEL
 70
     0
 62
     7
  6
Continuous
370
    -3
390
F
  0
LAYER
  5
7D
330
2
100
AcDbSymbolTableRecord
100
AcDbLayerTableRecord
  2
DETAYLANDıRMA
 70
     0
 62
   190
  6
Continuous
370
    -3
390
F
  0
LAYER
  5
7E
330
2
100
AcDbSymbolTableRecord
100
AcDbLayerTableRecord
  2
TOLERANS
 70
     0
 62
   230
  6
Continuous
370
    -3
390
F
  0
LAYER
  5
7F
330
2
100
AcDbSymbolTableRecord
100
AcDbLayerTableRecord
  2
MERKEZ_CIZGILERI
 70
     0
 62
    30
  6
Continuous
370
    -3
390
F
  0
LAYER
  5
80
330
2
100
AcDbSymbolTableRecord
100
AcDbLayerTableRecord
  2
KESIT-DETAY_CIZGILERI
 70
     0
 62
     7
  6
Continuous
370
    -3
390
F
  0
LAYER
  5
81
330
2
100
AcDbSymbolTableRecord
100
AcDbLayerTableRecord
  2
\U+041E\U+0421\U+0415\U+0412\U+042B\U+0415
 70
     0
 62
     7
  6
Continuous
370
    -3
390
F
  0
LAYER
  5
82
330
2
100
AcDbSymbolTableRecord
100
AcDbLayerTableRecord
  2
\U+0412\U+041E\U+0414\U+042F\U+041D\U+042B\U+0415_\U+0417\U+041D\U+0410\U+041A\U+0418
 70
     0
 62
    11
  6
Continuous
370
    -3
390
F
  0
ENDTAB
  0
TABLE
  2
STYLE
  5
3
330
0
100
AcDbSymbolTable
 70
     1
  0
STYLE
  5
11
330
3
100
AcDbSymbolTableRecord
100
AcDbTextStyleTableRecord
  2
Standard
 70
     0
 40
0.0
 41
1.0
 50
0.0
 71
     0
 42
3.5
  3
txt
  4

  0
ENDTAB
  0
TABLE
  2
VIEW
  5
6
330
0
100
AcDbSymbolTable
 70
     0
  0
ENDTAB
  0
TABLE
  2
UCS
  5
7
330
0
100
AcDbSymbolTable
 70
     0
  0
ENDTAB
  0
TABLE
  2
APPID
  5
9
330
0
100
AcDbSymbolTable
 70
     1
  0
APPID
  5
12
330
9
100
AcDbSymbolTableRecord
100
AcDbRegAppTableRecord
  2
ACAD
 70
     0
  0
ENDTAB
  0
TABLE
  2
DIMSTYLE
  5
A
330
0
100
AcDbSymbolTable
 70
     1
100
AcDbDimStyleTable
  0
DIMSTYLE
105
27
330
A
100
AcDbSymbolTableRecord
100
AcDbDimStyleTableRecord
  2
ISO-25
 70
     0
 41
2.5
 42
0.625
 43
3.75
 44
1.25
 73
     0
 74
     0
 77
     1
 78
     8
140
2.5
141
2.5
143
0.0393700787
147
0.625
171
     3
172
     1
178
     0
271
     2
272
     2
274
     3
278
    44
283
     0
284
     8
340
11
  0
ENDTAB
  0
TABLE
  2
BLOCK_RECORD
  5
1
330
0
100
AcDbSymbolTable
 70
     3
  0
BLOCK_RECORD
  5
1F
330
1
100
AcDbSymbolTableRecord
100
AcDbBlockTableRecord
  2
*Model_Space
340
22
  0
BLOCK_RECORD
  5
1B
330
1
100
AcDbSymbolTableRecord
100
AcDbBlockTableRecord
  2
*Paper_Space
340
1E
  0
BLOCK_RECORD
  5
23
330
1
100
AcDbSymbolTableRecord
100
AcDbBlockTableRecord
  2
*Paper_Space0
340
26
  0
BLOCK_RECORD
  5
8C
330
1
100
AcDbSymbolTableRecord
100
AcDbBlockTableRecord
  2
SW_CENTERMARKSYMBOL_0
340
0
102
{BLKREFS
331
97
102
}
  0
BLOCK_RECORD
  5
103
330
1
100
AcDbSymbolTableRecord
100
AcDbBlockTableRecord
  2
SW_CENTERMARKSYMBOL_1
340
0
102
{BLKREFS
331
10E
102
}
  0
ENDTAB
  0
ENDSEC
  0
SECTION
  2
BLOCKS
  0
BLOCK
  5
20
330
1F
100
AcDbEntity
  8
0
100
AcDbBlockBegin
  2
*Model_Space
 70
     0
 10
0.0
 20
0.0
 30
0.0
  3
*Model_Space
  1

  0
ENDBLK
  5
21
330
1F
100
AcDbEntity
  8
0
100
AcDbBlockEnd
  0
BLOCK
  5
1C
330
1B
100
AcDbEntity
 67
     1
  8
0
100
AcDbBlockBegin
  2
*Paper_Space
 70
     0
 10
0.0
 20
0.0
 30
0.0
  3
*Paper_Space
  1

  0
ENDBLK
  5
1D
330
1B
100
AcDbEntity
 67
     1
  8
0
100
AcDbBlockEnd
  0
BLOCK
  5
24
330
23
100
AcDbEntity
  8
0
100
AcDbBlockBegin
  2
*Paper_Space0
 70
     0
 10
0.0
 20
0.0
 30
0.0
  3
*Paper_Space0
  1

  0
ENDBLK
  5
25
330
23
100
AcDbEntity
  8
0
100
AcDbBlockEnd
  0
BLOCK
  5
8D
330
8C
100
AcDbEntity
  8
0
100
AcDbBlockBegin
  2
SW_CENTERMARKSYMBOL_0
 70
     0
 10
0.0
 20
0.0
 30
0.0
  3
SW_CENTERMARKSYMBOL_0
  1

  0
LINE
  5
8F
330
8C
100
AcDbEntity
  8
FORMAT
 62
     0
100
AcDbLine
 10
0.0
 20
0.0
 30
0.0
 11
0.0
 21
2.5
 31
0.0
  0
LINE
  5
90
330
8C
100
AcDbEntity
  8
FORMAT
 62
     0
100
AcDbLine
 10
0.0
 20
0.0
 30
0.0
 11
-2.5
 21
0.0
 31
0.0
  0
LINE
  5
91
330
8C
100
AcDbEntity
  8
FORMAT
 62
     0
100
AcDbLine
 10
0.0
 20
0.0
 30
0.0
 11
0.0
 21
-2.5
 31
0.0
  0
LINE
  5
92
330
8C
100
AcDbEntity
  8
FORMAT
 62
     0
100
AcDbLine
 10
0.0
 20
0.0
 30
0.0
 11
2.5
 21
0.0
 31
0.0
  0
LINE
  5
93
330
8C
100
AcDbEntity
  8
FORMAT
 62
     0
100
AcDbLine
 10
0.0
 20
5.0
 30
0.0
 11
0.0
 21
30.0
 31
0.0
  0
LINE
  5
94
330
8C
100
AcDbEntity
  8
FORMAT
 62
     0
100
AcDbLine
 10
-5.0
 20
0.0
 30
0.0
 11
-30.0
 21
0.0
 31
0.0
  0
LINE
  5
95
330
8C
100
AcDbEntity
  8
FORMAT
 62
     0
100
AcDbLine
 10
0.0
 20
-5.0
 30
0.0
 11
0.0
 21
-30.0
 31
0.0
  0
LINE
  5
96
330
8C
100
AcDbEntity
  8
FORMAT
 62
     0
100
AcDbLine
 10
5.0
 20
0.0
 30
0.0
 11
30.0
 21
0.0
 31
0.0
  0
ENDBLK
  5
8E
330
8C
100
AcDbEntity
  8
0
100
AcDbBlockEnd
  0
BLOCK
  5
104
330
103
100
AcDbEntity
  8
0
100
AcDbBlockBegin
  2
SW_CENTERMARKSYMBOL_1
 70
     0
 10
0.0
 20
0.0
 30
0.0
  3
SW_CENTERMARKSYMBOL_1
  1

  0
LINE
  5
106
330
103
100
AcDbEntity
  8
FORMAT
 62
     0
100
AcDbLine
 10
0.0
 20
0.0
 30
0.0
 11
0.0
 21
2.5
 31
0.0
  0
LINE
  5
107
330
103
100
AcDbEntity
  8
FORMAT
 62
     0
100
AcDbLine
 10
0.0
 20
0.0
 30
0.0
 11
-2.5
 21
0.0
 31
0.0
  0
LINE
  5
108
330
103
100
AcDbEntity
  8
FORMAT
 62
     0
100
AcDbLine
 10
0.0
 20
0.0
 30
0.0
 11
0.0
 21
-2.5
 31
0.0
  0
LINE
  5
109
330
103
100
AcDbEntity
  8
FORMAT
 62
     0
100
AcDbLine
 10
0.0
 20
0.0
 30
0.0
 11
2.5
 21
0.0
 31
0.0
  0
LINE
  5
10A
330
103
100
AcDbEntity
  8
FORMAT
 62
     0
100
AcDbLine
 10
0.0
 20
5.0
 30
0.0
 11
0.0
 21
7.25
 31
0.0
  0
LINE
  5
10B
330
103
100
AcDbEntity
  8
FORMAT
 62
     0
100
AcDbLine
 10
-5.0
 20
0.0
 30
0.0
 11
-7.25
 21
0.0
 31
0.0
  0
LINE
  5
10C
330
103
100
AcDbEntity
  8
FORMAT
 62
     0
100
AcDbLine
 10
0.0
 20
-5.0
 30
0.0
 11
0.0
 21
-7.25
 31
0.0
  0
LINE
  5
10D
330
103
100
AcDbEntity
  8
FORMAT
 62
     0
100
AcDbLine
 10
5.0
 20
0.0
 30
0.0
 11
7.25
 21
0.0
 31
0.0
  0
ENDBLK
  5
105
330
103
100
AcDbEntity
  8
0
100
AcDbBlockEnd
  0
ENDSEC
  0
SECTION
  2
ENTITIES
  0
LINE
  5
83
330
1F
100
AcDbEntity
  8
0
  6
Continuous
 62
     7
370
    25
100
AcDbLine
 10
144.6448476938
 20
163.97664499
 30
0.0
 11
144.399234026
 21
178.0478425974
 31
0.0
  0
LINE
  5
84
330
1F
100
AcDbEntity
  8
0
  6
Continuous
 62
     7
370
    25
100
AcDbLine
 10
130.399234026
 20
178.0478425974
 30
0.0
 11
130.1536677415
 21
163.9793595825
 31
0.0
  0
LINE
  5
85
330
1F
100
AcDbEntity
  8
0
  6
Continuous
 62
     7
370
    25
100
AcDbLine
 10
130.1537444443
 20
110.9119313134
 30
0.0
 11
130.399234026
 21
96.8478425974
 31
0.0
  0
LINE
  5
86
330
1F
100
AcDbEntity
  8
0
  6
Continuous
 62
     7
370
    25
100
AcDbLine
 10
144.399234026
 20
96.8478425974
 30
0.0
 11
144.644734434
 21
110.9125515523
 31
0.0
  0
CIRCLE
  5
87
330
1F
100
AcDbEntity
  8
0
  6
Continuous
 62
     7
370
    25
100
AcDbCircle
 10
137.399234026
 20
137.4478425974
 30
0.0
 40
20.19999999999999
  0
CIRCLE
  5
88
330
1F
100
AcDbEntity
  8
0
  6
Continuous
 62
     7
370
    25
100
AcDbCircle
 10
137.399234026
 20
137.4478425974
 30
0.0
 40
26.5
  0
CIRCLE
  5
89
330
1F
100
AcDbEntity
  8
0
  6
Continuous
 62
     7
370
    25
100
AcDbCircle
 10
137.399234026
 20
137.4478425974
 30
0.0
 40
27.5
  0
LINE
  5
8A
330
1F
100
AcDbEntity
  8
0
  6
Continuous
 62
     7
370
    25
100
AcDbLine
 10
130.399234026
 20
178.0478425974
 30
0.0
 11
144.399234026
 21
178.0478425974
 31
0.0
  0
LINE
  5
8B
330
1F
100
AcDbEntity
  8
0
  6
Continuous
 62
     7
370
    25
100
AcDbLine
 10
130.399234026
 20
96.8478425974
 30
0.0
 11
144.399234026
 21
96.8478425974
 31
0.0
  0
INSERT
  5
97
330
1F
100
AcDbEntity
  8
FORMAT
 62
     7
100
AcDbBlockReference
  2
SW_CENTERMARKSYMBOL_0
 10
137.399234026
 20
137.4478425974
 30
0.0
  0
LINE
  5
98
330
1F
100
AcDbEntity
  8
0
  6
Continuous
 62
     7
370
    25
100
AcDbLine
 10
288.5989808893
 20
109.9478425974
 30
0.0
 11
290.1394937662
 21
109.9478425974
 31
0.0
  0
LINE
  5
99
330
1F
100
AcDbEntity
  8
0
  6
Continuous
 62
     7
370
    25
100
AcDbLine
 10
224.7796509185
 20
109.9478425974
 30
0.0
 11
274.1524576559
 21
109.9478425974
 31
0.0
  0
LINE
  5
9A
330
1F
100
AcDbEntity
  8
0
  6
Continuous
 62
     7
370
    25
100
AcDbLine
 10
274.1662716696
 20
164.9478425974
 30
0.0
 11
224.7796509185
 21
164.9478425974
 31
0.0
  0
LINE
  5
9B
330
1F
100
AcDbEntity
  8
0
  6
Continuous
 62
     7
370
    25
100
AcDbLine
 10
290.1394937662
 20
164.9478425974
 30
0.0
 11
288.5790021741
 21
164.9478425974
 31
0.0
  0
ARC
  5
9C
330
1F
100
AcDbEntity
  8
0
  6
Continuous
 62
     7
370
    25
100
AcDbCircle
 10
290.1394937662
 20
110.9478425974
 30
0.0
 40
1.000000000000014
100
AcDbArc
 50
270.0
 51
0.0
  0
ARC
  5
9D
330
1F
100
AcDbEntity
  8
0
  6
Continuous
 62
     7
370
    25
100
AcDbCircle
 10
290.1394937662
 20
163.9478425974
 30
0.0
 40
1.0
100
AcDbArc
 50
0.0
 51
90.0
  0
ARC
  5
9E
330
1F
100
AcDbEntity
  8
0
  6
Continuous
 62
     7
370
    25
100
AcDbCircle
 10
224.7796509185
 20
112.9478425974
 30
0.0
 40
3.000000000000019
100
AcDbArc
 50
201.4489225277
 51
270.0
  0
ARC
  5
9F
330
1F
100
AcDbEntity
  8
0
  6
Continuous
 62
     7
370
    25
100
AcDbCircle
 10
224.7796509185
 20
161.9478425974
 30
0.0
 40
3.000000000000014
100
AcDbArc
 50
90.0
 51
158.5510774723
  0
ARC
  5
A0
330
1F
100
AcDbEntity
  8
0
  6
Continuous
 62
     7
370
    25
100
AcDbCircle
 10
287.1394937662
 20
137.4478425974
 30
0.0
 40
70.0
100
AcDbArc
 50
158.5510774723
 51
201.4489225277
  0
LINE
  5
A1
330
1F
100
AcDbEntity
  8
0
  6
Continuous
 62
     7
370
    25
100
AcDbLine
 10
288.6046934842
 20
164.9415494178
 30
0.0
 11
288.3759222858
 21
178.0478425974
 31
0.0
  0
LINE
  5
A2
330
1F
100
AcDbEntity
  8
0
  6
Continuous
 62
     7
370
    25
100
AcDbLine
 10
274.3759222858
 20
178.0478425974
 30
0.0
 11
274.147179457
 21
164.9431747101
 31
0.0
  0
LINE
  5
A3
330
1F
100
AcDbEntity
  8
0
  6
Continuous
 62
     7
370
    25
100
AcDbLine
 10
274.1472388074
 20
109.9491103009
 30
0.0
 11
274.3759222858
 21
96.8478425974
 31
0.0
  0
LINE
  5
A4
330
1F
100
AcDbEntity
  8
0
  6
Continuous
 62
     7
370
    25
100
AcDbLine
 10
288.3759222858
 20
96.8478425974
 30
0.0
 11
288.6046075044
 21
109.949209996
 31
0.0
  0
SPLINE
  5
A5
330
1F
100
AcDbEntity
  8
0
  6
Continuous
 62
     7
370
    25
100
AcDbSpline
210
0.0
220
0.0
230
1.0
 70
     8
 71
     3
 72
    26
 73
    22
 74
     0
 42
0.00000001
 43
0.00000001
 40
0.0
 40
0.0
 40
0.0
 40
0.0
 40
0.0482578732630737
 40
0.1012605680279668
 40
0.1526659330269458
 40
0.2054879663001296
 40
0.2582638729666518
 40
0.3125209809329041
 40
0.3660801230698947
 40
0.4212616807555615
 40
0.4735679875994104
 40
0.5274840151084556
 40
0.5783118021099289
 40
0.6305890678055598
 40
0.681953810701988
 40
0.734714485889057
 40
0.7877827375258424
 40
0.8423622708204034
 40
0.8958085774699723
 40
0.9508847504772453
 40
1.0
 40
1.0
 40
1.0
 40
1.0
 10
288.5989808893383
 20
109.9493146701984
 30
0.0
 10
288.5850795341643
 20
109.9530106198257
 30
0.0
 10
288.5559100116369
 20
109.9607659130734
 30
0.0
 10
288.2719317718409
 20
110.0346011870082
 30
0.0
 10
287.8110338749677
 20
110.1483012167842
 30
0.0
 10
287.1756410738835
 20
110.293074827411
 30
0.0
 10
286.3716769173523
 20
110.4556582206012
 30
0.0
 10
285.4232310479975
 20
110.6174325734986
 30
0.0
 10
284.3423462293307
 20
110.7613335626001
 30
0.0
 10
283.1845586262593
 20
110.8665901696379
 30
0.0
 10
281.9697588185164
 20
110.9221696805599
 30
0.0
 10
280.7692330436811
 20
110.9216115947046
 30
0.0
 10
279.5879475884294
 20
110.8672738119218
 30
0.0
 10
278.4756484630665
 20
110.7679841221956
 30
0.0
 10
277.4306652076993
 20
110.632431874828
 30
0.0
 10
276.4878983826824
 20
110.4755852172739
 30
0.0
 10
275.6618322728148
 20
110.3116303683737
 30
0.0
 10
274.9909974016952
 20
110.1603815188091
 30
0.0
 10
274.4987179010811
 20
110.0394597627834
 30
0.0
 10
274.1982871417682
 20
109.961391782184
 30
0.0
 10
274.1671401651982
 20
109.953111142759
 30
0.0
 10
274.1524576559382
 20
109.9492076959907
 30
0.0
  0
SPLINE
  5
A6
330
1F
100
AcDbEntity
  8
0
  6
Continuous
 62
     7
370
    25
100
AcDbSpline
210
0.0
220
0.0
230
1.0
 70
     8
 71
     3
 72
    27
 73
    23
 74
     0
 42
0.00000001
 43
0.00000001
 40
0.0
 40
0.0
 40
0.0
 40
0.0
 40
0.0139709953955122
 40
0.0674265173955986
 40
0.1186459424467556
 40
0.1712956928932206
 40
0.2235651378526977
 40
0.2772783930733884
 40
0.330789305518939
 40
0.3858815867995866
 40
0.4387698166394708
 40
0.4932982562459147
 40
0.5444432190767579
 40
0.5970889776514837
 40
0.6480431934097789
 40
0.7003899361209478
 40
0.7529318506318643
 40
0.8069351074961756
 40
0.860505042956393
 40
0.9156816740272296
 40
0.9682700131710998
 40
1.0
 40
1.0
 40
1.0
 40
1.0
 10
274.1662716695718
 20
164.9428352096998
 30
0.0
 10
274.1606573980355
 20
164.944313819028
 30
0.0
 10
274.1335619215365
 20
164.9514498515558
 30
0.0
 10
274.283435239724
 20
164.9118348499512
 30
0.0
 10
274.6171582591877
 20
164.8265256220486
 30
0.0
 10
275.1419004038778
 20
164.6999802952178
 30
0.0
 10
275.8386740151439
 20
164.5470280876813
 30
0.0
 10
276.6922183217758
 20
164.3831704063261
 30
0.0
 10
277.6942732928522
 20
164.2246756117009
 30
0.0
 10
278.8005456406353
 20
164.0931589377948
 30
0.0
 10
279.9914679204214
 20
164.0032438948104
 30
0.0
 10
281.1961524850036
 20
163.967469450715
 30
0.0
 10
282.4032111914333
 20
163.9873778994136
 30
0.0
 10
283.5540765838883
 20
164.0578802823428
 30
0.0
 10
284.6516486612901
 20
164.1717731277675
 30
0.0
 10
285.6590510261367
 20
164.3156995058521
 30
0.0
 10
286.5680170670729
 20
164.4775801240396
 30
0.0
 10
287.3395500112015
 20
164.6384618239904
 30
0.0
 10
287.9574513844772
 20
164.7825776982822
 30
0.0
 10
288.3732482784218
 20
164.8870714084881
 30
0.0
 10
288.5901507856145
 20
164.9440177806904
 30
0.0
 10
288.5820504329285
 20
164.9418975741614
 30
0.0
 10
288.5790021740706
 20
164.9410997152801
 30
0.0
  0
LINE
  5
A7
330
1F
100
AcDbEntity
  8
0
  6
Continuous
 62
     7
370
    25
100
AcDbLine
 10
291.1394937662
 20
137.4478425974
 30
0.0
 11
291.1394937662
 21
163.9478425974
 31
0.0
  0
LINE
  5
A8
330
1F
100
AcDbEntity
  8
0
  6
Continuous
 62
     7
370
    25
100
AcDbLine
 10
291.1394937662
 20
110.9478425974
 30
0.0
 11
291.1394937662
 21
137.4478425974
 31
0.0
  0
LINE
  5
A9
330
1F
100
AcDbEntity
  8
0
  6
Continuous
 62
     7
370
    25
100
AcDbLine
 10
274.3759222858
 20
178.0478425974
 30
0.0
 11
288.3759222858
 21
178.0478425974
 31
0.0
  0
LINE
  5
AA
330
1F
100
AcDbEntity
  8
0
  6
Continuous
 62
     7
370
    25
100
AcDbLine
 10
274.3759222858
 20
96.8478425974
 30
0.0
 11
288.3759222858
 21
96.8478425974
 31
0.0
  0
LINE
  5
AB
330
1F
100
AcDbEntity
  8
0
  6
Continuous
 62
     7
370
    25
100
AcDbLine
 10
290.1394937662
 20
137.4478425974
 30
0.0
 11
290.1394937662
 21
164.9478425974
 31
0.0
  0
LINE
  5
AC
330
1F
100
AcDbEntity
  8
0
  6
Continuous
 62
     7
370
    25
100
AcDbLine
 10
290.1394937662
 20
109.9478425974
 30
0.0
 11
290.1394937662
 21
137.4478425974
 31
0.0
  0
LINE
  5
AD
330
1F
100
AcDbEntity
  8
0
  6
Continuous
 62
     7
370
    25
100
AcDbLine
 10
224.7796509185
 20
137.4478425974
 30
0.0
 11
224.7796509185
 21
164.9478425974
 31
0.0
  0
LINE
  5
AE
330
1F
100
AcDbEntity
  8
0
  6
Continuous
 62
     7
370
    25
100
AcDbLine
 10
224.7796509185
 20
109.9478425974
 30
0.0
 11
224.7796509185
 21
137.4478425974
 31
0.0
  0
LINE
  5
AF
330
1F
100
AcDbEntity
  8
0
  6
Continuous
 62
     7
370
    25
100
AcDbLine
 10
221.9874191491
 20
137.4478425974
 30
0.0
 11
221.9874191491
 21
163.0448575228
 31
0.0
  0
LINE
  5
B0
330
1F
100
AcDbEntity
  8
0
  6
Continuous
 62
     7
370
    25
100
AcDbLine
 10
221.9874191491
 20
111.850827672
 30
0.0
 11
221.9874191491
 21
137.4478425974
 31
0.0
  0
SPLINE
  5
B1
330
1F
100
AcDbEntity
  8
0
  6
Continuous
 62
     7
370
    25
100
AcDbSpline
210
0.0
220
0.0
230
1.0
 70
     8
 71
     3
 72
    23
 73
    19
 74
     0
 42
0.00000001
 43
0.00000001
 40
0.0
 40
0.0
 40
0.0
 40
0.0
 40
0.0213558285347792
 40
0.0863954297481375
 40
0.1514475603258542
 40
0.2166098477439538
 40
0.2819706596026235
 40
0.3475961290088814
 40
0.4135251956208163
 40
0.4797689030588532
 40
0.5463136292320193
 40
0.6131271310877646
 40
0.6801658258179768
 40
0.7473817608643287
 40
0.8147281775003882
 40
0.8821632016467907
 40
0.9496517401209993
 40
1.0
 40
1.0
 40
1.0
 40
1.0
 10
211.1416235595691
 20
259.6698431136925
 30
0.0
 10
211.0589004626467
 20
259.6242879490712
 30
0.0
 10
210.724242526193
 20
259.4399936231315
 30
0.0
 10
210.1767674314338
 20
259.050246821966
 30
0.0
 10
209.5026711942753
 20
258.5021097228131
 30
0.0
 10
208.8742235574985
 20
257.8876763346506
 30
0.0
 10
208.2894823613632
 20
257.2141628498818
 30
0.0
 10
207.7508171287246
 20
256.4813948513615
 30
0.0
 10
207.2594919532391
 20
255.691379450374
 30
0.0
 10
206.817092022695
 20
254.8458454818185
 30
0.0
 10
206.4250656625061
 20
253.9469813820805
 30
0.0
 10
206.0847703815389
 20
252.9972540542754
 30
0.0
 10
205.7973480149766
 20
251.9994475461795
 30
0.0
 10
205.5638241829922
 20
250.9565264756832
 30
0.0
 10
205.3845907523906
 20
249.8718341250701
 30
0.0
 10
205.2612692892293
 20
248.7480700860586
 30
0.0
 10
205.1958296796701
 20
247.6889756440142
 30
0.0
 10
205.1887745227276
 20
246.9961007230646
 30
0.0
 10
205.1857600579747
 20
246.7000552850423
 30
0.0
  0
SPLINE
  5
B2
330
1F
100
AcDbEntity
  8
0
  6
Continuous
 62
     7
370
    25
100
AcDbSpline
210
0.0
220
0.0
230
1.0
 70
     8
 71
     3
 72
    53
 73
    49
 74
     0
 42
0.00000001
 43
0.00000001
 40
0.0
 40
0.0
 40
0.0
 40
0.0
 40
0.0118765022534191
 40
0.0343563034207743
 40
0.0568293035814622
 40
0.0792941884584304
 40
0.1017495375641812
 40
0.1241947556251504
 40
0.1466298523971415
 40
0.1690552716981348
 40
0.1914717623766677
 40
0.2138802832433324
 40
0.2362819345772026
 40
0.2586779099025815
 40
0.2810694629033255
 40
0.3034578854060681
 40
0.3258444932431966
 40
0.3482306174847615
 40
0.3706174716872537
 40
0.393006082921922
 40
0.4153978018565765
 40
0.43779397823838
 40
0.4601959536728953
 40
0.4826050499607173
 40
0.5050225505784995
 40
0.5274496723396369
 40
0.5498875234325168
 40
0.5723370429800335
 40
0.5947989160281325
 40
0.6172734565742078
 40
0.6397604501723688
 40
0.6622589473727268
 40
0.6847670007965116
 40
0.7072813437105067
 40
0.7297955846207609
 40
0.7523012847024833
 40
0.7747881316669367
 40
0.7972431770233197
 40
0.8196510717020056
 40
0.8419948449480162
 40
0.8642573676788506
 40
0.886423503351834
 40
0.9084827191860689
 40
0.9304316775072698
 40
0.9522761736257251
 40
0.9740318399667414
 40
0.9957233041492723
 40
1.0
 40
1.0
 40
1.0
 40
1.0
 10
205.1857600579747
 20
246.7000552850423
 30
0.0
 10
205.187308738596
 20
246.4883838383045
 30
0.0
 10
205.1917887563814
 20
245.876061431045
 30
0.0
 10
205.241380954671
 20
244.8418875251905
 30
0.0
 10
205.3521140617279
 20
243.5923685531842
 30
0.0
 10
205.5177771743354
 20
242.3220010277703
 30
0.0
 10
205.7367863870682
 20
241.0347476520719
 30
0.0
 10
206.0086350023859
 20
239.7339529626516
 30
0.0
 10
206.3323710708066
 20
238.4231553569348
 30
0.0
 10
206.7070092105947
 20
237.1058609124342
 30
0.0
 10
207.1314229970839
 20
235.7855992198322
 30
0.0
 10
207.6043761229116
 20
234.4659019016386
 30
0.0
 10
208.1245165011848
 20
233.1503003231166
 30
0.0
 10
208.6903806694923
 20
231.8423169684007
 30
0.0
 10
209.3003959811303
 20
230.5454576205601
 30
0.0
 10
209.9528840256561
 20
229.2632027082744
 30
0.0
 10
210.6460643943565
 20
227.9989984991486
 30
0.0
 10
211.378057640575
 20
226.756250523438
 30
0.0
 10
212.1468875321727
 20
225.5383179270261
 30
0.0
 10
212.9504893495306
 20
224.3484982468898
 30
0.0
 10
213.7867175141198
 20
223.1900165630508
 30
0.0
 10
214.6533547819622
 20
222.066014542767
 30
0.0
 10
215.548114991683
 20
220.9795486910525
 30
0.0
 10
216.4686496581098
 20
219.9335833915873
 30
0.0
 10
217.4125546214236
 20
218.9309846377681
 30
0.0
 10
218.377376580423
 20
217.9745145527725
 30
0.0
 10
219.3606192888046
 20
217.0668267809336
 30
0.0
 10
220.3597491276872
 20
216.21046280515
 30
0.0
 10
221.3721996880132
 20
215.4078491930354
 30
0.0
 10
222.3953749064778
 20
214.6612956847679
 30
0.0
 10
223.4266502093002
 20
213.9729938896592
 30
0.0
 10
224.4633710561902
 20
213.3450161339549
 30
0.0
 10
225.5028482823066
 20
212.7793136801575
 30
0.0
 10
226.5423277337302
 20
212.2777237568999
 30
0.0
 10
227.578979144764
 20
211.841954474274
 30
0.0
 10
228.6098912258975
 20
211.4735607566246
 30
0.0
 10
229.6320795239078
 20
211.1739136053044
 30
0.0
 10
230.6424764181378
 20
210.9441714744537
 30
0.0
 10
231.637926218178
 20
210.7852402703062
 30
0.0
 10
232.6152047823042
 20
210.6977294556316
 30
0.0
 10
233.5710749195845
 20
210.6818896203568
 30
0.0
 10
234.5023171024722
 20
210.7376439809277
 30
0.0
 10
235.405951672939
 20
210.8643545258051
 30
0.0
 10
236.2788076097713
 20
211.0617116892595
 30
0.0
 10
237.1194929578976
 20
211.3266341230089
 30
0.0
 10
237.9213547007985
 20
211.665120209727
 30
0.0
 10
238.4911631324956
 20
211.9463026347111
 30
0.0
 10
238.7807042142016
 20
212.1340192913045
 30
0.0
 10
238.8283887302074
 20
212.1649343444055
 30
0.0
  0
LINE
  5
B3
330
1F
100
AcDbEntity
  8
0
  6
Continuous
 62
     7
370
    25
100
AcDbLine
 10
257.3915952806
 20
286.3791444631
 30
0.0
 11
237.1311662936
 21
274.6830477672
 31
0.0
  0
LINE
  5
B4
330
1F
100
AcDbEntity
  8
0
  6
Continuous
 62
     7
370
    25
100
AcDbLine
 10
224.0025967654
 20
267.1040859014
 30
0.0
 11
211.1752071857
 21
259.6989915189
 31
0.0
  0
LINE
  5
B5
330
1F
100
AcDbEntity
  8
0
  6
Continuous
 62
     7
370
    25
100
AcDbLine
 10
238.6729723332
 20
212.0663040879
 30
0.0
 11
284.8893604281
 21
238.7464570321
 31
0.0
  0
LINE
  5
B6
330
1F
100
AcDbEntity
  8
0
  6
Continuous
 62
     7
370
    25
100
AcDbLine
 10
238.3571601029
 20
261.5837796941
 30
0.0
 11
238.1203375449
 21
272.6613986809
 31
0.0
  0
LINE
  5
B7
330
1F
100
AcDbEntity
  8
0
  6
Continuous
 62
     7
370
    25
100
AcDbLine
 10
224.1214036164
 20
272.6613986809
 30
0.0
 11
223.8841756305
 21
261.5648153894
 31
0.0
  0
SPLINE
  5
B8
330
1F
100
AcDbEntity
  8
0
  6
Continuous
 62
     7
370
    25
100
AcDbSpline
210
0.0
220
0.0
230
1.0
 70
     8
 71
     3
 72
    67
 73
    63
 74
     0
 42
0.00000001
 43
0.00000001
 40
0.0
 40
0.0
 40
0.0
 40
0.0
 40
0.0117232035672312
 40
0.0274071774244845
 40
0.0431072376389226
 40
0.0588685757706801
 40
0.0747322810084038
 40
0.0907329812845151
 40
0.106896687990367
 40
0.1232390708448982
 40
0.1397644999576256
 40
0.1564661925202314
 40
0.173327636178612
 40
0.1903251492874002
 40
0.207431104911348
 40
0.2246171624526168
 40
0.2418569152994209
 40
0.259127623577772
 40
0.2764106515749633
 40
0.2936889598422872
 40
0.3109540812594193
 40
0.328200721231617
 40
0.3454260684075429
 40
0.3626291795720782
 40
0.3798104741763833
 40
0.3969713398285907
 40
0.4141138359701249
 40
0.4312404781096338
 40
0.4483540850073507
 40
0.4654576733431759
 40
0.4825543871342836
 40
0.4996474517428398
 40
0.516740144418956
 40
0.5338352361133779
 40
0.5509354909018822
 40
0.5680442445660098
 40
0.585164821011443
 40
0.6023005036051621
 40
0.6194544903491361
 40
0.6366298245124403
 40
0.6538292902028955
 40
0.6710552594981386
 40
0.6883094745244059
 40
0.7055927448829407
 40
0.722904539422844
 40
0.7402424541155788
 40
0.757601549067562
 40
0.774973573954865
 40
0.7923414256674781
 40
0.80968577371791
 40
0.8269825494048161
 40
0.8442031216692548
 40
0.861315989758125
 40
0.8782896440033995
 40
0.8950962960275282
 40
0.9117157767697937
 40
0.928138712139193
 40
0.9443682658197762
 40
0.9604202044940604
 40
0.9763215273711113
 40
0.9921081743165249
 40
1.0
 40
1.0
 40
1.0
 40
1.0
 10
284.8936835559595
 20
238.7572356961812
 30
0.0
 10
285.091315523258
 20
238.8729406079248
 30
0.0
 10
285.5533508672182
 20
239.1434421842947
 30
0.0
 10
286.2330828364645
 20
239.6442065570454
 30
0.0
 10
286.936849930138
 20
240.244304886036
 30
0.0
 10
287.5944371375728
 20
240.9063648109654
 30
0.0
 10
288.206235891301
 20
241.6263976327109
 30
0.0
 10
288.7704627232564
 20
242.4040482682318
 30
0.0
 10
289.2857565502376
 20
243.237962220979
 30
0.0
 10
289.7504718399597
 20
244.1268437146469
 30
0.0
 10
290.1629205361683
 20
245.0689709616589
 30
0.0
 10
290.5214095578546
 20
246.0621654867403
 30
0.0
 10
290.8243703119209
 20
247.1037112447638
 30
0.0
 10
291.0704710208829
 20
248.1903827746398
 30
0.0
 10
291.258709512955
 20
249.3185354993381
 30
0.0
 10
291.3884628225431
 20
250.4842421432278
 30
0.0
 10
291.4594915188224
 20
251.6834371420885
 30
0.0
 10
291.4719070684094
 20
252.9120311337602
 30
0.0
 10
291.426122918234
 20
254.1659242981734
 30
0.0
 10
291.3228061708394
 20
255.4411539436825
 30
0.0
 10
291.1628148770405
 20
256.7339145536583
 30
0.0
 10
290.9471313247688
 20
258.0406205578826
 30
0.0
 10
290.6768401396736
 20
259.35777013794
 30
0.0
 10
290.3531122971651
 20
260.6819228278776
 30
0.0
 10
289.9771964681011
 20
262.0096805514601
 30
0.0
 10
289.5504151084671
 20
263.3376736218424
 30
0.0
 10
289.0741632356984
 20
264.662551832691
 30
0.0
 10
288.5499084021048
 20
265.9809800907169
 30
0.0
 10
287.9791908650153
 20
267.2896377730148
 30
0.0
 10
287.3636233288648
 20
268.5852209479918
 30
0.0
 10
286.7048899032594
 20
269.8644466624173
 30
0.0
 10
286.004744108386
 20
271.1240585952232
 30
0.0
 10
285.2650136512302
 20
272.3608204973171
 30
0.0
 10
284.4875990346368
 20
273.5715238082884
 30
0.0
 10
283.6744615840092
 20
274.7530095737337
 30
0.0
 10
282.827607862614
 20
275.9021869341353
 30
0.0
 10
281.949080940557
 20
277.0160372709072
 30
0.0
 10
281.0409627221017
 20
278.0916047345639
 30
0.0
 10
280.1053679643068
 20
279.1259985435216
 30
0.0
 10
279.1444391130956
 20
280.1163934123965
 30
0.0
 10
278.1603427336377
 20
281.0600278318651
 30
0.0
 10
277.1552685631655
 20
281.9542000315258
 30
0.0
 10
276.1314325203621
 20
282.7962616589394
 30
0.0
 10
275.0910853310949
 20
283.5836095730759
 30
0.0
 10
274.0365287015249
 20
284.313676758883
 30
0.0
 10
272.9701410170361
 20
284.983924316526
 30
0.0
 10
271.8944141288396
 20
285.5918378057618
 30
0.0
 10
270.8120994943365
 20
286.1348836918917
 30
0.0
 10
269.7262124390138
 20
286.610588323724
 30
0.0
 10
268.6400782051242
 20
287.0166045784592
 30
0.0
 10
267.5572700196294
 20
287.3508245828644
 30
0.0
 10
266.4816636290396
 20
287.6114568532864
 30
0.0
 10
265.4173910319565
 20
287.797147022857
 30
0.0
 10
264.3687293306989
 20
287.9070897921429
 30
0.0
 10
263.3399352182508
 20
287.9411158539108
 30
0.0
 10
262.3350921351674
 20
287.899664409492
 30
0.0
 10
261.3578723900361
 20
287.7838686512122
 30
0.0
 10
260.4117476795354
 20
287.5948993724546
 30
0.0
 10
259.4988233679287
 20
287.3357743583373
 30
0.0
 10
258.6240397684348
 20
287.003984300185
 30
0.0
 10
257.9191810081329
 20
286.6816467297197
 30
0.0
 10
257.5215342170291
 20
286.4454205078272
 30
0.0
 10
257.3890020555097
 20
286.3666883955723
 30
0.0
  0
LINE
  5
B9
330
1F
100
AcDbEntity
  8
0
  6
Continuous
 62
     7
370
    25
100
AcDbLine
 10
223.9632014171
 20
213.658618529
 30
0.0
 11
224.1214036164
 21
206.258547771
 31
0.0
  0
LINE
  5
BA
330
1F
100
AcDbEntity
  8
0
  6
Continuous
 62
     7
370
    25
100
AcDbLine
 10
238.1203375449
 20
206.258547771
 30
0.0
 11
238.2396781715
 21
211.8408284565
 31
0.0
  0
LWPOLYLINE
  5
BB
330
1F
100
AcDbEntity
  8
0
  6
Continuous
 62
     7
370
    25
100
AcDbPolyline
 90
      112
 70
   128
 43
0.0
 10
205.4786532768
 20
246.2918512291
 10
205.5086655364
 20
247.4987151902
 10
205.5986061768
 20
248.6670617848
 10
205.7481870911
 20
249.7931484465
 10
205.9569291266
 20
250.8733679804
 10
206.2241636195
 20
251.9042601176
 10
206.5490345371
 20
252.8825225997
 10
206.9305012201
 20
253.8050217572
 10
207.3673417156
 20
254.6688025471
 10
207.8581566918
 20
255.4710980192
 10
208.4013739204
 20
256.2093381791
 10
208.9952533128
 20
256.8811582211
 10
209.6378924943
 20
257.4844061031
 10
210.3272328979
 20
258.0171494401
 10
211.0610663583
 20
258.4776816948
 10
211.8370421859
 20
258.8645276434
 10
212.6526746961
 20
259.1764481017
 10
213.5053511721
 20
259.4124438946
 10
214.3923402341
 20
259.5717590562
 10
215.3108005886
 20
259.6538832522
 10
216.2577901303
 20
259.658553414
 10
217.2302753663
 20
259.5857545815
 10
218.225141133
 20
259.4357199516
 10
219.2392005755
 20
259.2089301302
 10
220.2692053558
 20
258.9061115935
 10
221.3118560579
 20
258.5282343607
 10
222.3638127574
 20
258.0765088864
 10
223.4217057198
 20
257.5523821835
 10
224.482146195
 20
256.9575331878
 10
225.5417372725
 20
256.29386738
 10
226.5970847626
 20
255.5635106818
 10
227.6448080691
 20
254.7688026459
 10
228.6815510185
 20
253.9122889616
 10
229.7039926105
 20
252.9967133006
 10
230.7088576564
 20
252.0250085276
 10
231.6929272706
 20
251.0002873061
 10
232.6530491814
 20
249.925832127
 10
233.586147829
 20
248.8050847941
 10
234.4892342169
 20
247.6416353992
 10
235.3594154872
 20
246.4392108213
 10
236.1939041871
 20
245.2016627888
 10
236.9900271976
 20
243.9329555412
 10
237.7452342967
 20
242.6371531303
 10
238.4571063284
 20
241.3184064019
 10
239.123362952
 20
239.9809396993
 10
239.7418699466
 20
238.6290373316
 10
240.3106460479
 20
237.2670298496
 10
240.8278692945
 20
235.8992801739
 10
241.2918828645
 20
234.530169619
 10
241.7012003825
 20
233.1640838588
 10
242.054510681
 20
231.8053988779
 10
242.3506820008
 20
230.4584669538
 10
242.5887656158
 20
229.1276027156
 10
242.7679988723
 20
227.8170693226
 10
242.8878076322
 20
226.5310648085
 10
242.947808112
 20
225.2737086332
 10
242.947808112
 20
224.0490284878
 10
242.8878076322
 20
222.860947392
 10
242.7679988723
 20
221.7132711276
 10
242.5887656158
 20
220.6096760478
 10
242.3506820008
 20
219.5536973003
 10
242.054510681
 20
218.5487175034
 10
241.7012003825
 20
217.5979559103
 10
241.2918828645
 20
216.7044580971
 10
240.8278692945
 20
215.8710862066
 10
240.3106460479
 20
215.1005097803
 10
239.7418699466
 20
214.3951972067
 10
239.123362952
 20
213.7574078146
 10
238.4571063284
 20
213.1891846357
 10
237.7452342967
 20
212.6923478603
 10
236.9900271976
 20
212.2684890062
 10
236.1939041871
 20
211.9189658212
 10
235.3594154872
 20
211.6448979333
 10
234.4892342169
 20
211.4471632647
 10
233.586147829
 20
211.3263952192
 10
232.6530491814
 20
211.2829806531
 10
231.6929272706
 20
211.3170586364
 10
230.7088576564
 20
211.4285200071
 10
229.7039926105
 20
211.6170077208
 10
228.6815510185
 20
211.8819179945
 10
227.6448080691
 20
212.2224022408
 10
226.5970847626
 20
212.6373697859
 10
225.5417372725
 20
213.1254913637
 10
224.482146195
 20
213.6852033737
 10
223.4217057198
 20
214.3147128895
 10
222.3638127574
 20
215.0120034023
 10
221.3118560579
 20
215.7748412806
 10
220.2692053558
 20
216.6007829244
 10
219.2392005755
 20
217.4871825938
 10
218.225141133
 20
218.4312008834
 10
217.2302753663
 20
219.4298138181
 10
216.2577901303
 20
220.4798225394
 10
215.3108005886
 20
221.577863553
 10
214.3923402341
 20
222.7204195024
 10
213.5053511721
 20
223.9038304365
 10
212.6526746961
 20
225.1243055333
 10
211.8370421859
 20
226.3779352431
 10
211.0610663583
 20
227.660703812
 10
210.3272328979
 20
228.9685021455
 10
209.6378924943
 20
230.2971409714
 10
208.9952533128
 20
231.6423642589
 10
208.4013739204
 20
232.9998628523
 10
207.8581566918
 20
234.3652882744
 10
207.3673417156
 20
235.7342666558
 10
206.9305012201
 20
237.102412746
 10
206.5490345371
 20
238.4653439608
 10
206.2241636195
 20
239.8186944206
 10
205.9569291266
 20
241.1581289357
 10
205.7481870911
 20
242.4793568937
 10
205.5986061768
 20
243.7781460031
 10
205.5086655364
 20
245.0503358507
 10
205.4786532768
 20
246.2918512291
  0
LINE
  5
BC
330
1F
100
AcDbEntity
  8
0
  6
Continuous
 62
     7
370
    25
100
AcDbLine
 10
211.140087173
 20
259.6786133412
 30
0.0
 11
211.1752071857
 21
259.6989915189
 31
0.0
  0
LINE
  5
BD
330
1F
100
AcDbEntity
  8
0
  6
Continuous
 62
     7
370
    25
100
AcDbLine
 10
238.8207234772
 20
212.1534519526
 30
0.0
 11
238.6729723332
 21
212.0663040879
 31
0.0
  0
LINE
  5
BE
330
1F
100
AcDbEntity
  8
0
  6
Continuous
 62
     7
370
    25
100
AcDbLine
 10
238.357699673
 20
261.4708130914
 30
0.0
 11
238.3451336967
 21
261.5830917455
 31
0.0
  0
SPLINE
  5
BF
330
1F
100
AcDbEntity
  8
0
  6
Continuous
 62
     7
370
    25
100
AcDbSpline
210
0.0
220
0.0
230
1.0
 70
     8
 71
     3
 72
    27
 73
    23
 74
     0
 42
0.00000001
 43
0.00000001
 40
0.0
 40
0.0
 40
0.0
 40
0.0
 40
0.0073633002818884
 40
0.060603527255192
 40
0.1149473920411795
 40
0.169282933846135
 40
0.2226420838362442
 40
0.2759981681359454
 40
0.3279946326511944
 40
0.3799969342592054
 40
0.432329773518686
 40
0.4846682230296523
 40
0.538509333763605
 40
0.5923464584070227
 40
0.6465661911762075
 40
0.7007759835114497
 40
0.7533747595180303
 40
0.8059735512477426
 40
0.8573955080800957
 40
0.9088255067561714
 40
0.9544113682689076
 40
1.0
 40
1.0
 40
1.0
 40
1.0
 10
223.8966578887976
 20
261.5641172730469
 30
0.0
 10
223.89229148866
 20
261.5381593813164
 30
0.0
 10
223.8563539009455
 20
261.3245133613598
 30
0.0
 10
223.979750330514
 20
260.9181479269529
 30
0.0
 10
224.2876748038195
 20
260.3495224996507
 30
0.0
 10
224.8098814702644
 20
259.7904108909687
 30
0.0
 10
225.5093349811841
 20
259.2534824981231
 30
0.0
 10
226.3546063882237
 20
258.7549897412105
 30
0.0
 10
227.3248429507331
 20
258.3055225289335
 30
0.0
 10
228.3862990637125
 20
257.9172275735021
 30
0.0
 10
229.5218141671209
 20
257.6041234460793
 30
0.0
 10
230.7107192321728
 20
257.3780568521649
 30
0.0
 10
231.9223264099715
 20
257.2616885623722
 30
0.0
 10
233.1277825574221
 20
257.2688969605954
 30
0.0
 10
234.2811280949788
 20
257.4195434567941
 30
0.0
 10
235.3404125331452
 20
257.7113136880442
 30
0.0
 10
236.2690455472004
 20
258.1450205078399
 30
0.0
 10
237.043261854842
 20
258.6937198119733
 30
0.0
 10
237.6486367607104
 20
259.3466959577888
 30
0.0
 10
238.0606262406669
 20
260.0448992823311
 30
0.0
 10
238.3061752897261
 20
260.7621617071759
 30
0.0
 10
238.3405245306788
 20
261.2345911785753
 30
0.0
 10
238.3576996729836
 20
261.4708130913524
 30
0.0
  0
LWPOLYLINE
  5
C0
330
1F
100
AcDbEntity
  8
0
  6
Continuous
 62
     7
370
    25
100
AcDbPolyline
 90
       98
 70
   128
 43
0.0
 10
209.9334259983
 20
243.7201656769
 10
209.9633810992
 20
244.7705346419
 10
210.0531207599
 20
245.781912571
 10
210.202268581
 20
246.7500573938
 10
210.4101989848
 20
247.6709083744
 10
210.6760398388
 20
248.5406031439
 10
210.9986761142
 20
249.3554938999
 10
211.3767545622
 20
250.1121627077
 10
211.8086893905
 20
250.8074358351
 10
212.2926689143
 20
251.4383970652
 10
212.8266631553
 20
252.0023999271
 10
213.408432356
 20
252.497078797
 10
214.0355363743
 20
252.9203588197
 10
214.7053449179
 20
253.2704646117
 10
215.4150485771
 20
253.5459277076
 10
216.1616706081
 20
253.7455927196
 10
216.9420794186
 20
253.868622183
 10
217.7530017028
 20
253.9145000697
 10
218.5910361708
 20
253.8830339518
 10
219.4526678149
 20
253.7743558091
 10
220.3342826526
 20
253.5889214756
 10
221.2321828847
 20
253.3275087273
 10
222.1426024057
 20
252.99121402
 10
223.0617225998
 20
252.5814478907
 10
223.9856883573
 20
252.099929041
 10
224.9106242449
 20
251.5486771281
 10
225.8326507599
 20
250.9300042943
 10
226.7479006028
 20
250.2465054683
 10
227.6525348976
 20
249.5010474819
 10
228.5427592937
 20
248.6967570448
 10
229.4148398806
 20
247.8370076306
 10
230.2651188493
 20
246.9254053272
 10
231.0900298343
 20
245.9657737115
 10
231.8861128722
 20
244.9621378119
 10
232.6500289142
 20
243.9187072261
 10
233.3785738308
 20
242.8398584648
 10
234.0686918514
 20
241.7301165945
 10
234.7174883814
 20
240.5941362582
 10
235.3222421425
 20
239.4366821524
 10
235.8804165873
 20
238.2626090417
 10
236.3896705382
 20
237.0768413968
 10
236.8478680072
 20
235.8843527393
 10
237.2530871548
 20
234.690144781
 10
237.6036283512
 20
233.4992264451
 10
237.8980213047
 20
232.3165928571
 10
238.1350312289
 20
231.1472043931
 10
238.3136640219
 20
229.9959658748
 10
238.4331704357
 20
228.8677059966
 10
238.4930492188
 20
227.7671570725
 10
238.4930492188
 20
226.6989351872
 10
238.4331704357
 20
225.6675208346
 10
238.3136640219
 20
224.6772401247
 10
238.1350312289
 20
223.7322466392
 10
237.8980213047
 20
222.836504009
 10
237.6036283512
 20
221.9937692901
 10
237.2530871548
 20
221.2075772047
 10
236.8478680072
 20
220.4812253157
 10
236.3896705382
 20
219.8177601953
 10
235.8804165873
 20
219.2199646468
 10
235.3222421425
 20
218.6903460325
 10
234.7174883814
 20
218.2311257569
 10
234.0686918514
 20
217.8442299494
 10
233.3785738308
 20
217.5312813855
 10
232.6500289142
 20
217.2935926803
 10
231.8861128722
 20
217.1321607827
 10
231.0900298343
 20
217.0476627943
 10
230.2651188493
 20
217.0404531289
 10
229.4148398806
 20
217.1105620265
 10
228.5427592937
 20
217.2576954259
 10
227.6525348976
 20
217.4812361985
 10
226.7479006028
 20
217.7802467367
 10
225.8326507599
 20
218.1534728863
 10
224.9106242449
 20
218.5993492072
 10
223.9856883573
 20
219.116005539
 10
223.0617225998
 20
219.7012748457
 10
222.1426024057
 20
220.3527023043
 10
221.2321828847
 20
221.0675556018
 10
220.3342826526
 20
221.8428363948
 10
219.4526678149
 20
222.6752928864
 10
218.5910361708
 20
223.5614334647
 10
217.7530017028
 20
224.4975413482
 10
216.9420794186
 20
225.4796901751
 10
216.1616706081
 20
226.503760472
 10
215.4150485771
 20
227.565456932
 10
214.7053449179
 20
228.6603264313
 10
214.0355363743
 20
229.7837767067
 10
213.408432356
 20
230.9310956173
 10
212.8266631553
 20
232.0974709088
 10
212.2926689143
 20
233.2780103981
 10
211.8086893905
 20
234.4677624921
 10
211.3767545622
 20
235.6617369572
 10
210.9986761142
 20
236.8549258494
 10
210.6760398388
 20
238.04232452
 10
210.4101989848
 20
239.2189526062
 10
210.202268581
 20
240.3798749209
 10
210.0531207599
 20
241.5202221526
 10
209.9633810992
 20
242.6352112885
 10
209.9334259983
 20
243.7201656769
  0
LWPOLYLINE
  5
C1
330
1F
100
AcDbEntity
  8
0
  6
Continuous
 62
     7
370
    25
100
AcDbPolyline
 90
       58
 70
   128
 43
0.0
 10
236.0706180489
 20
275.4689585799
 10
235.496063521
 20
275.7659565389
 10
234.8684000776
 20
276.0246640351
 10
234.1952467026
 20
276.24194071
 10
233.4847745661
 20
276.415149119
 10
232.7456078375
 20
276.5421867467
 10
231.9867189995
 20
276.6215115285
 10
231.2173199346
 20
276.6521605688
 10
230.4467501053
 20
276.6337618298
 10
229.6843631853
 20
276.5665386475
 10
228.9394135191
 20
276.45130702
 10
228.2209437866
 20
276.2894657033
 10
227.537675237
 20
276.0829792317
 10
226.897901825
 20
275.8343540712
 10
226.309389533
 20
275.5466081946
 10
225.7792821032
 20
275.223234447
 10
225.3140143216
 20
274.8681581475
 10
224.9192339088
 20
274.4856894416
 10
224.5997329643
 20
274.0804709811
 10
224.3593897966
 20
273.6574215693
 10
224.2011218463
 20
273.2216764529
 10
224.1268502719
 20
272.7785249874
 10
224.1374766297
 20
272.3333464312
 10
224.2328719301
 20
271.8915446491
 10
224.4118782034
 20
271.458482516
 10
224.6723225559
 20
271.0394168198
 10
225.011043546
 20
270.6394344502
 10
225.4239295597
 20
270.2633906514
 10
225.9059687202
 20
269.9158500857
 10
226.4513097249
 20
269.6010314247
 10
227.0533328728
 20
269.3227561407
 10
227.7047304185
 20
269.0844021185
 10
228.3975952781
 20
268.8888626531
 10
229.1235170109
 20
268.7385113287
 10
229.8736839103
 20
268.6351732067
 10
230.6389899664
 20
268.580102672
 10
231.4101454004
 20
268.5739682062
 10
232.1777894299
 20
268.6168442735
 10
232.9326038964
 20
268.7082104164
 10
233.6654263746
 20
268.8469575738
 10
234.3673613924
 20
269.0314015431
 10
235.0298884096
 20
269.2593034244
 10
235.6449652457
 20
269.5278967975
 10
236.205125701
 20
269.8339213028
 10
236.7035701864
 20
270.1736622174
 10
237.1342482612
 20
270.5429955466
 10
237.4919320769
 20
270.9374380844
 10
237.7722798365
 20
271.3522018325
 10
237.9718884979
 20
271.7822521209
 10
238.0883350825
 20
272.2223687216
 10
238.1202060864
 20
272.6672092154
 10
238.0671146388
 20
273.1113738413
 10
237.929705198
 20
273.5494710423
 10
237.7096457284
 20
273.9761829119
 10
237.4096074539
 20
274.386329746
 10
237.0332324327
 20
274.7749329178
 10
236.5850893477
 20
275.137275311
 10
236.0706180489
 20
275.4689585799
  0
LWPOLYLINE
  5
C2
330
1F
100
AcDbEntity
  8
0
  6
Continuous
 62
     7
370
    25
100
AcDbPolyline
 90
       48
 70
   128
 43
0.0
 10
234.4796277913
 20
274.5504994541
 10
234.0019807178
 20
274.7916382878
 10
233.4729201657
 20
274.9938730409
 10
232.9018872331
 20
275.1535948293
 10
232.2990720161
 20
275.267953414
 10
231.6752317665
 20
275.3349080633
 10
231.0414989285
 20
275.3532639699
 10
230.4091824794
 20
275.3226935722
 10
229.7895661214
 20
275.2437423997
 10
229.193706923
 20
275.1178193379
 10
228.6322380058
 20
274.9471714869
 10
228.1151787958
 20
274.7348440616
 10
227.6517562269
 20
274.4846260499
 10
227.2502400858
 20
274.2009825982
 10
226.9177954376
 20
273.8889753306
 10
226.6603547649
 20
273.5541720242
 10
226.4825121026
 20
273.2025472519
 10
226.3874410573
 20
272.8403757661
 10
226.3768381739
 20
272.4741205255
 10
226.4508926612
 20
272.1103173636
 10
226.6082830151
 20
271.7554583565
 10
226.846200601
 20
271.4158759715
 10
227.160399774
 20
271.0976300643
 10
227.5452736423
 20
270.8063997407
 10
227.9939541227
 20
270.5473820127
 10
228.4984345014
 20
270.3251990578
 10
229.0497123141
 20
270.1438157361
 10
229.637949995
 20
270.0064688372
 10
230.252650429
 20
269.9156093199
 10
230.8828442721
 20
269.8728585744
 10
231.5172857004
 20
269.8789794887
 10
232.1446530914
 20
269.9338628349
 10
232.7537510593
 20
270.0365292185
 10
233.3337102364
 20
270.1851465555
 10
233.8741812374
 20
270.3770627658
 10
234.3655193445
 20
270.6088531003
 10
234.7989566175
 20
270.8763812548
 10
235.166758358
 20
271.1748731832
 10
235.4623611354
 20
271.4990022898
 10
235.6804899109
 20
271.8429844832
 10
235.8172521715
 20
272.2006813929
 10
235.8702073913
 20
272.565709909
 10
235.8384105832
 20
272.9315560892
 10
235.722429162
 20
273.2916913996
 10
235.5243328189
 20
273.639689217
 10
235.2476565878
 20
273.9693395122
 10
234.8973377627
 20
274.2747596679
 10
234.4796277913
 20
274.5504994541
  0
LWPOLYLINE
  5
C3
330
1F
100
AcDbEntity
  8
0
  6
Continuous
 62
     7
370
    25
100
AcDbPolyline
 90
       30
 70
   128
 43
0.0
 10
224.1214036164
 20
206.258547771
 10
224.1374766297
 20
206.0302325061
 10
224.2328719301
 20
205.5884307239
 10
224.4118782034
 20
205.1553685909
 10
224.6723225559
 20
204.7363028946
 10
225.011043546
 20
204.336320525
 10
225.4239295597
 20
203.9602767262
 10
225.9059687202
 20
203.6127361605
 10
226.4513097249
 20
203.2979174996
 10
227.0533328728
 20
203.0196422156
 10
227.7047304185
 20
202.7812881934
 10
228.3975952781
 20
202.585748728
 10
229.1235170109
 20
202.4353974036
 10
229.8736839103
 20
202.3320592816
 10
230.6389899664
 20
202.2769887469
 10
231.4101454004
 20
202.2708542811
 10
232.1777894299
 20
202.3137303484
 10
232.9326038964
 20
202.4050964913
 10
233.6654263746
 20
202.5438436487
 10
234.3673613924
 20
202.728287618
 10
235.0298884096
 20
202.9561894992
 10
235.6449652457
 20
203.2247828724
 10
236.205125701
 20
203.5308073777
 10
236.7035701864
 20
203.8705482922
 10
237.1342482612
 20
204.2398816215
 10
237.4919320769
 20
204.6343241593
 10
237.7722798365
 20
205.0490879073
 10
237.9718884979
 20
205.4791381957
 10
238.0883350825
 20
205.9192547965
 10
238.1203375449
 20
206.258547771
  0
LWPOLYLINE
  5
C4
330
1F
100
AcDbEntity
  8
0
  6
Continuous
 62
     7
370
    25
100
AcDbPolyline
 90
       58
 70
   128
 43
0.0
 10
211.1752071857
 20
259.6989915189
 10
211.8590750808
 20
260.0563309092
 10
212.6796790859
 20
260.3953591896
 10
213.5381298627
 20
260.6586200839
 10
214.4317739891
 20
260.8452998677
 10
215.3578492622
 20
260.9548215245
 10
216.3134932364
 20
260.9868465292
 10
217.2957520711
 20
260.9412758943
 10
218.3015896603
 20
260.8182504761
 10
219.3278970179
 20
260.6181505389
 10
220.3715018865
 20
260.3415945804
 10
221.4291785434
 20
259.989437419
 10
222.4976577705
 20
259.5627675525
 10
223.5736369598
 20
259.0629037928
 10
224.6537903214
 20
258.4913911903
 10
225.734779163
 20
257.8499962577
 10
226.8132622102
 20
257.1407015098
 10
227.8859059336
 20
256.3656993362
 10
228.9493948529
 20
255.5273852242
 10
230.0004417848
 20
254.6283503546
 10
231.0357980036
 20
253.6713735926
 10
232.0522632824
 20
252.6594128987
 10
233.0466957853
 20
251.5955961853
 10
234.0160217785
 20
250.483211649
 10
234.9572451309
 20
249.3256976065
 10
235.867456575
 20
248.1266318675
 10
236.7438426994
 20
246.8897206754
 10
237.5836946449
 20
245.6187872518
 10
238.3844164771
 20
244.3177599791
 10
239.1435332108
 20
242.9906602582
 10
239.8586984598
 20
241.641590078
 10
240.527701689
 20
240.2747193374
 10
241.148475048
 20
238.8942729553
 10
241.7190997619
 20
237.5045178124
 10
242.2378120623
 20
236.1097495623
 10
242.7030086393
 20
234.7142793537
 10
243.1132515969
 20
233.322420505
 10
243.4672728977
 20
231.9384751722
 10
243.763978282
 20
230.5667210509
 10
244.0024506506
 20
229.2113981546
 10
244.181952899
 20
227.8766957087
 10
244.3019301961
 20
226.5667392018
 10
244.3620116989
 20
225.2855776346
 10
244.3620116989
 20
224.037171004
 10
244.3019301961
 20
222.8253780633
 10
244.181952899
 20
221.6539443951
 10
244.0024506506
 20
220.5264908337
 10
243.763978282
 20
219.4465022735
 10
243.4672728977
 20
218.4173168972
 10
243.1132515969
 20
217.4421158579
 10
242.7030086393
 20
216.523913446
 10
242.2378120623
 20
215.6655477726
 10
241.7190997619
 20
214.8696719968
 10
241.148475048
 20
214.138746125
 10
240.527701689
 20
213.4750294072
 10
239.8586984598
 20
212.8805733537
 10
239.1435332108
 20
212.3572153942
 10
238.8207234772
 20
212.1534519526
  0
LWPOLYLINE
  5
C5
330
1F
100
AcDbEntity
  8
0
  6
Continuous
 62
     7
370
    25
100
AcDbPolyline
 90
       58
 70
   128
 43
0.0
 10
257.3915952806
 20
286.3791444631
 10
258.0754631758
 20
286.7364838534
 10
258.8960671809
 20
287.0755121338
 10
259.7545179577
 20
287.3387730281
 10
260.648162084
 20
287.5254528119
 10
261.5742373571
 20
287.6349744687
 10
262.5298813314
 20
287.6669994734
 10
263.512140166
 20
287.6214288385
 10
264.5179777553
 20
287.4984034203
 10
265.5442851129
 20
287.2983034831
 10
266.5878899815
 20
287.0217475246
 10
267.6455666383
 20
286.6695903632
 10
268.7140458655
 20
286.2429204967
 10
269.7900250548
 20
285.743056737
 10
270.8701784164
 20
285.1715441345
 10
271.951167258
 20
284.5301492018
 10
273.0296503052
 20
283.820854454
 10
274.1022940285
 20
283.0458522804
 10
275.1657829478
 20
282.2075381684
 10
276.2168298798
 20
281.3085032988
 10
277.2521860985
 20
280.3515265368
 10
278.2686513773
 20
279.3395658429
 10
279.2630838803
 20
278.2757491295
 10
280.2324098735
 20
277.1633645932
 10
281.1736332259
 20
276.0058505507
 10
282.08384467
 20
274.8067848116
 10
282.9602307944
 20
273.5698736195
 10
283.8000827398
 20
272.298940196
 10
284.6008045721
 20
270.9979129233
 10
285.3599213058
 20
269.6708132024
 10
286.0750865547
 20
268.3217430222
 10
286.744089784
 20
266.9548722816
 10
287.364863143
 20
265.5744258995
 10
287.9354878569
 20
264.1846707566
 10
288.4542001573
 20
262.7899025065
 10
288.9193967343
 20
261.3944322979
 10
289.3296396919
 20
260.0025734492
 10
289.6836609926
 20
258.6186281164
 10
289.980366377
 20
257.2468739951
 10
290.2188387456
 20
255.8915510988
 10
290.398340994
 20
254.5568486529
 10
290.518318291
 20
253.246892146
 10
290.5783997938
 20
251.9657305788
 10
290.5783997938
 20
250.7173239482
 10
290.518318291
 20
249.5055310075
 10
290.398340994
 20
248.3340973393
 10
290.2188387456
 20
247.2066437779
 10
289.980366377
 20
246.1266552177
 10
289.6836609926
 20
245.0974698414
 10
289.3296396919
 20
244.1222688021
 10
288.9193967343
 20
243.2040663902
 10
288.4542001573
 20
242.3457007168
 10
287.9354878569
 20
241.549824941
 10
287.364863143
 20
240.8188990692
 10
286.744089784
 20
240.1551823514
 10
286.0750865547
 20
239.5607262979
 10
285.3599213058
 20
239.0373683384
 10
284.8893604281
 20
238.7464570321
  0
LINE
  5
C6
330
1F
100
AcDbEntity
  8
0
  6
Continuous
 62
     7
370
    25
100
AcDbLine
 10
-40.1581315247
 20
164.9478425974
 30
0.0
 11
-41.7186231169
 21
164.9478425974
 31
0.0
  0
LINE
  5
C7
330
1F
100
AcDbEntity
  8
0
  6
Continuous
 62
     7
370
    25
100
AcDbLine
 10
23.6412197309
 20
164.9478425974
 30
0.0
 11
-25.7454010202
 21
164.9478425974
 31
0.0
  0
LINE
  5
C8
330
1F
100
AcDbEntity
  8
0
  6
Continuous
 62
     7
370
    25
100
AcDbLine
 10
-25.7315870066
 20
109.9478425974
 30
0.0
 11
23.6412197309
 21
109.9478425974
 31
0.0
  0
LINE
  5
C9
330
1F
100
AcDbEntity
  8
0
  6
Continuous
 62
     7
370
    25
100
AcDbLine
 10
-41.7186231169
 20
109.9478425974
 30
0.0
 11
-40.17811024
 21
109.9478425974
 31
0.0
  0
ARC
  5
CA
330
1F
100
AcDbEntity
  8
0
  6
Continuous
 62
     7
370
    25
100
AcDbCircle
 10
23.6412197309
 20
161.9478425974
 30
0.0
 40
3.0
100
AcDbArc
 50
21.4489225277
 51
90.0
  0
ARC
  5
CB
330
1F
100
AcDbEntity
  8
0
  6
Continuous
 62
     7
370
    25
100
AcDbCircle
 10
23.6412197309
 20
112.9478425974
 30
0.0
 40
3.0
100
AcDbArc
 50
270.0
 51
338.5510774723
  0
ARC
  5
CC
330
1F
100
AcDbEntity
  8
0
  6
Continuous
 62
     7
370
    25
100
AcDbCircle
 10
-41.7186231169
 20
163.9478425974
 30
0.0
 40
1.0
100
AcDbArc
 50
90.0
 51
180.0
  0
ARC
  5
CD
330
1F
100
AcDbEntity
  8
0
  6
Continuous
 62
     7
370
    25
100
AcDbCircle
 10
-41.7186231169
 20
110.9478425974
 30
0.0
 40
1.000000000000014
100
AcDbArc
 50
180.0
 51
270.0
  0
ARC
  5
CE
330
1F
100
AcDbEntity
  8
0
  6
Continuous
 62
     7
370
    25
100
AcDbCircle
 10
-38.7186231169
 20
137.4478425974
 30
0.0
 40
70.0
100
AcDbArc
 50
338.5510774723
 51
0.0
  0
ARC
  5
CF
330
1F
100
AcDbEntity
  8
0
  6
Continuous
 62
     7
370
    25
100
AcDbCircle
 10
-38.7186231169
 20
137.4478425974
 30
0.0
 40
70.0
100
AcDbArc
 50
0.0
 51
21.4489225277
  0
LINE
  5
D0
330
1F
100
AcDbEntity
  8
0
  6
Continuous
 62
     7
370
    25
100
AcDbLine
 10
-25.7263088076
 20
164.9431747101
 30
0.0
 11
-25.9550516365
 21
178.0478425974
 31
0.0
  0
LINE
  5
D1
330
1F
100
AcDbEntity
  8
0
  6
Continuous
 62
     7
370
    25
100
AcDbLine
 10
-39.9550516365
 20
178.0478425974
 30
0.0
 11
-40.1838228349
 21
164.9415494178
 31
0.0
  0
LINE
  5
D2
330
1F
100
AcDbEntity
  8
0
  6
Continuous
 62
     7
370
    25
100
AcDbLine
 10
-40.1837368551
 20
109.949209996
 30
0.0
 11
-39.9550516365
 21
96.8478425974
 31
0.0
  0
LINE
  5
D3
330
1F
100
AcDbEntity
  8
0
  6
Continuous
 62
     7
370
    25
100
AcDbLine
 10
-25.9550516365
 20
96.8478425974
 30
0.0
 11
-25.7263681581
 21
109.9491103009
 31
0.0
  0
SPLINE
  5
D4
330
1F
100
AcDbEntity
  8
0
  6
Continuous
 62
     7
370
    25
100
AcDbSpline
210
0.0
220
0.0
230
1.0
 70
     8
 71
     3
 72
    22
 73
    18
 74
     0
 42
0.00000001
 43
0.00000001
 40
0.0
 40
0.0
 40
0.0
 40
0.0
 40
0.0707020267846165
 40
0.1434113840580879
 40
0.2141273468387043
 40
0.2869948780300927
 40
0.355954923569189
 40
0.4269798277524213
 40
0.494976292921243
 40
0.5648520670438583
 40
0.6346107842551096
 40
0.7062841795625554
 40
0.7779186152156671
 40
0.8516646969170865
 40
0.9225751756877588
 40
0.9956613117122496
 40
1.0
 40
1.0
 40
1.0
 40
1.0
 10
-27.89118785128313
 20
110.438301148347
 30
0.0
 10
-28.18851989786434
 20
110.4917951124676
 30
0.0
 10
-28.79162566815482
 20
110.6003018099724
 30
0.0
 10
-29.84847947376244
 20
110.7447483500325
 30
0.0
 10
-30.99726634253886
 20
110.8558177283088
 30
0.0
 10
-32.18814425205395
 20
110.9176205863438
 30
0.0
 10
-33.40217413414464
 20
110.9248046827096
 30
0.0
 10
-34.57616359186695
 20
110.8782345923895
 30
0.0
 10
-35.70792898463203
 20
110.7837583133842
 30
0.0
 10
-36.75738960044688
 20
110.653379238735
 30
0.0
 10
-37.72019799593472
 20
110.4978973100664
 30
0.0
 10
-38.56047212237947
 20
110.334537726154
 30
0.0
 10
-39.2574018368479
 20
110.1799521095117
 30
0.0
 10
-39.77920423966849
 20
110.0527991859268
 30
0.0
 10
-40.08676239260448
 20
109.9735531032987
 30
0.0
 10
-40.21290145466669
 20
109.940174272071
 30
0.0
 10
-40.17995639643141
 20
109.9488296453133
 30
0.0
 10
-40.17811023998771
 20
109.9493146701984
 30
0.0
  0
SPLINE
  5
D5
330
1F
100
AcDbEntity
  8
0
  6
Continuous
 62
     7
370
    25
100
AcDbSpline
210
0.0
220
0.0
230
1.0
 70
     8
 71
     3
 72
    13
 73
     9
 74
     0
 42
0.00000001
 43
0.00000001
 40
0.0
 40
0.0
 40
0.0
 40
0.0
 40
0.0116654328520559
 40
0.2235143215257341
 40
0.4257681453894986
 40
0.6337027182780351
 40
0.8149350847644817
 40
1.0
 40
1.0
 40
1.0
 40
1.0
 10
-25.73158700658761
 20
109.9492076959907
 30
0.0
 10
-25.7298704688869
 20
109.9487568389083
 30
0.0
 10
-25.69698092553151
 20
109.9401182383398
 30
0.0
 10
-25.81885550088795
 20
109.9723283167948
 30
0.0
 10
-26.10809125538314
 20
110.0470690873395
 30
0.0
 10
-26.57993116314841
 20
110.1621406475716
 30
0.0
 10
-27.17173808833552
 20
110.2969006202233
 30
0.0
 10
-27.64970428543326
 20
110.3908400113741
 30
0.0
 10
-27.89118785128313
 20
110.438301148347
 30
0.0
  0
SPLINE
  5
D6
330
1F
100
AcDbEntity
  8
0
  6
Continuous
 62
     7
370
    25
100
AcDbSpline
210
0.0
220
0.0
230
1.0
 70
     8
 71
     3
 72
    12
 73
     8
 74
     0
 42
0.00000001
 43
0.00000001
 40
0.0
 40
0.0
 40
0.0
 40
0.0
 40
0.2094402718512435
 40
0.4248504181317992
 40
0.6343241022659069
 40
0.8501226796737421
 40
0.9999999999999999
 40
0.9999999999999999
 40
0.9999999999999999
 40
0.9999999999999999
 10
-27.89118785128313
 20
164.4573840464581
 30
0.0
 10
-27.61968457301937
 20
164.5110470749598
 30
0.0
 10
-27.06893910141095
 20
164.6199027400887
 30
0.0
 10
-26.446573650188
 20
164.76531153113
 30
0.0
 10
-25.9989058177389
 20
164.8763097679738
 30
0.0
 10
-25.75401846611133
 20
164.9405408421258
 30
0.0
 10
-25.74790621202837
 20
164.942168210345
 30
0.0
 10
-25.74540102022113
 20
164.9428352096998
 30
0.0
  0
SPLINE
  5
D7
330
1F
100
AcDbEntity
  8
0
  6
Continuous
 62
     7
370
    25
100
AcDbSpline
210
0.0
220
0.0
230
1.0
 70
     8
 71
     3
 72
    22
 73
    18
 74
     0
 42
0.00000001
 43
0.00000001
 40
0.0
 40
0.0
 40
0.0
 40
0.0
 40
0.0300755075627529
 40
0.0987524877449675
 40
0.1694003073732519
 40
0.2385633589959315
 40
0.3096247094187903
 40
0.380736338013366
 40
0.453877632502159
 40
0.5254096658758414
 40
0.5991390463601314
 40
0.6685512602968052
 40
0.7400711855708259
 40
0.8080147697927137
 40
0.8778591065089133
 40
0.9383084424810514
 40
1.0
 40
1.0
 40
1.0
 40
1.0
 10
-40.15813152471995
 20
164.9410997152801
 30
0.0
 10
-40.16440421344019
 20
164.9427518333429
 30
0.0
 10
-40.18500049480571
 20
164.9481765387583
 30
0.0
 10
-40.01068235782931
 20
164.9022319228753
 30
0.0
 10
-39.65309487198381
 20
164.811368445034
 30
0.0
 10
-39.100052485124
 20
164.6795140038224
 30
0.0
 10
-38.38457257197948
 20
164.5248876084578
 30
0.0
 10
-37.50443029029071
 20
164.359774891912
 30
0.0
 10
-36.49212566575746
 20
164.2049237969895
 30
0.0
 10
-35.36246931688226
 20
164.0771588381459
 30
0.0
 10
-34.17848636188089
 20
163.9952703089226
 30
0.0
 10
-32.95820998235813
 20
163.9669291059181
 30
0.0
 10
-31.77023869721727
 20
163.9939997186153
 30
0.0
 10
-30.61458173431324
 20
164.0719071015481
 30
0.0
 10
-29.58402509016929
 20
164.1848097280296
 30
0.0
 10
-28.65964096050719
 20
164.3183226154798
 30
0.0
 10
-28.14906979175578
 20
164.4107170068754
 30
0.0
 10
-27.89118785128313
 20
164.4573840464581
 30
0.0
  0
LINE
  5
D8
330
1F
100
AcDbEntity
  8
0
  6
Continuous
 62
     7
370
    25
100
AcDbLine
 10
-42.7186231169
 20
163.9478425974
 30
0.0
 11
-42.7186231169
 21
110.9478425974
 31
0.0
  0
LINE
  5
D9
330
1F
100
AcDbEntity
  8
0
  6
Continuous
 62
     7
370
    25
100
AcDbLine
 10
-39.9550516365
 20
178.0478425974
 30
0.0
 11
-25.9550516365
 21
178.0478425974
 31
0.0
  0
LINE
  5
DA
330
1F
100
AcDbEntity
  8
0
  6
Continuous
 62
     7
370
    25
100
AcDbLine
 10
-39.9550516365
 20
96.8478425974
 30
0.0
 11
-25.9550516365
 21
96.8478425974
 31
0.0
  0
LINE
  5
DB
330
1F
100
AcDbEntity
  8
0
  6
Continuous
 62
     7
370
    25
100
AcDbLine
 10
-41.7186231169
 20
164.9478425974
 30
0.0
 11
-41.7186231169
 21
109.9478425974
 31
0.0
  0
LINE
  5
DC
330
1F
100
AcDbEntity
  8
0
  6
Continuous
 62
     7
370
    25
100
AcDbLine
 10
23.6412197309
 20
164.9478425974
 30
0.0
 11
23.6412197309
 21
109.9478425974
 31
0.0
  0
LINE
  5
DD
330
1F
100
AcDbEntity
  8
0
  6
Continuous
 62
     7
370
    25
100
AcDbLine
 10
26.4334515002
 20
163.0448575228
 30
0.0
 11
26.4334515002
 21
111.850827672
 31
0.0
  0
SPLINE
  5
DE
330
1F
100
AcDbEntity
  8
0
  6
Continuous
 62
     7
370
    25
100
AcDbSpline
210
0.0
220
0.0
230
1.0
 70
     8
 71
     3
 72
    67
 73
    63
 74
     0
 42
0.00000001
 43
0.00000001
 40
0.0
 40
0.0
 40
0.0
 40
0.0
 40
0.0131094505691738
 40
0.0294411378492661
 40
0.0457914526875808
 40
0.062184113241712
 40
0.078637951165162
 40
0.0951653006702891
 40
0.1117714316948949
 40
0.1284550257380839
 40
0.1452094794480618
 40
0.1620246683763392
 40
0.1788887650707928
 40
0.1957897863310541
 40
0.2127166946163149
 40
0.229660029132951
 40
0.2466121444013744
 40
0.2635667821067758
 40
0.2805189519602858
 40
0.2974661011625291
 40
0.3144066568522366
 40
0.3313397953024019
 40
0.3482652503268392
 40
0.3651831612219875
 40
0.3820939559948397
 40
0.3989982640293189
 40
0.4158968522653627
 40
0.4327905795924628
 40
0.4496803650261483
 40
0.4665671661013934
 40
0.4834519646725066
 40
0.5003357579173298
 40
0.5172195528013641
 40
0.534104144075692
 40
0.5509904300804656
 40
0.5678794297208564
 40
0.5847721595196951
 40
0.6016696271446569
 40
0.6185728209604884
 40
0.6354826936618073
 40
0.6524001375402917
 40
0.6693259482485503
 40
0.6862607730726308
 40
0.7032050387608433
 40
0.720158853005746
 40
0.7371218730188195
 40
0.7540931348128862
 40
0.771070838756944
 40
0.7880520684394864
 40
0.8050308093278653
 40
0.8220005138401064
 40
0.8389526823854175
 40
0.8558768528702057
 40
0.8727609116043915
 40
0.8895918595599409
 40
0.9063571118962753
 40
0.9230462764655388
 40
0.9396531683535186
 40
0.9561776423718407
 40
0.9726267598329054
 40
0.9890149093011525
 40
1.0
 40
1.0
 40
1.0
 40
1.0
 10
56.40189154903334
 20
7.918538218142229
 30
0.0
 10
56.59848609397622
 20
8.039659766439714
 30
0.0
 10
57.03999712966272
 20
8.311673927607389
 30
0.0
 10
57.67879667783208
 20
8.811273061985258
 30
0.0
 10
58.32449816741099
 20
9.400956326505021
 30
0.0
 10
58.92513250445751
 20
10.05340636004973
 30
0.0
 10
59.48073349520278
 20
10.76477487286008
 30
0.0
 10
59.98940946758108
 20
11.53422353535503
 30
0.0
 10
60.44974632952228
 20
12.35983165169652
 30
0.0
 10
60.86022088467953
 20
13.23960797200796
 30
0.0
 10
61.21944243818074
 20
14.17117621213229
 30
0.0
 10
61.5261718194319
 20
15.15187023047426
 30
0.0
 10
61.77938295288266
 20
16.17876013182406
 30
0.0
 10
61.97828579460595
 20
17.24871963441395
 30
0.0
 10
62.12233210906333
 20
18.35848556390998
 30
0.0
 10
62.21120443167129
 20
19.50470858555193
 30
0.0
 10
62.24479659900767
 20
20.68397954746015
 30
0.0
 10
62.2231945829002
 20
21.89284216182275
 30
0.0
 10
62.14665908822152
 20
23.12782892631884
 30
0.0
 10
62.01560533943316
 20
24.38547485015722
 30
0.0
 10
61.83058516607896
 20
25.66232609397508
 30
0.0
 10
61.59228001837007
 20
26.95491062548901
 30
0.0
 10
61.30149601854221
 20
28.25973822785186
 30
0.0
 10
60.95916069714591
 20
29.57330197868136
 30
0.0
 10
60.56632069686876
 20
30.89208133218671
 30
0.0
 10
60.12413989837417
 20
32.21254670809251
 30
0.0
 10
59.63389758015446
 20
33.53116537778605
 30
0.0
 10
59.0969863525075
 20
34.84440839967731
 30
0.0
 10
58.51490970259449
 20
36.14875835653649
 30
0.0
 10
57.88927905745493
 20
37.44071766714121
 30
0.0
 10
57.22181032048466
 20
38.7168172709487
 30
0.0
 10
56.51431987138376
 20
39.97362550911787
 30
0.0
 10
55.76872325630102
 20
41.20775172863836
 30
0.0
 10
54.98702948686837
 20
42.41585811189215
 30
0.0
 10
54.17133394358687
 20
43.59467167386089
 30
0.0
 10
53.32380844337894
 20
44.74099756407937
 30
0.0
 10
52.44669599739007
 20
45.85172418175241
 30
0.0
 10
51.54230615639695
 20
46.92382768747596
 30
0.0
 10
50.61300837987928
 20
47.95437872388425
 30
0.0
 10
49.66122540690409
 20
48.94054840880593
 30
0.0
 10
48.68942681645945
 20
49.87961350743371
 30
0.0
 10
47.7001230205348
 20
50.76896070905901
 30
0.0
 10
46.69586000402919
 20
51.60608996915349
 30
0.0
 10
45.67921520974891
 20
52.38861694139416
 30
0.0
 10
44.65279505814334
 20
53.11427463212284
 30
0.0
 10
43.61923467555344
 20
53.78091458114912
 30
0.0
 10
42.58120044573005
 20
54.38650813219704
 30
0.0
 10
41.5413964403221
 20
54.9291484610033
 30
0.0
 10
40.50260904747486
 20
55.4070393377144
 30
0.0
 10
39.46769629529833
 20
55.81852577540081
 30
0.0
 10
38.43960194952782
 20
56.16211460466677
 30
0.0
 10
37.42133403135757
 20
56.43651014559361
 30
0.0
 10
36.41599331763742
 20
56.64064042750451
 30
0.0
 10
35.42676446375731
 20
56.77370075418547
 30
0.0
 10
34.45688137645068
 20
56.83520979441406
 30
0.0
 10
33.50958926731959
 20
56.82502355309016
 30
0.0
 10
32.58801019492044
 20
56.74346063813881
 30
0.0
 10
31.69527804911157
 20
56.59090998937604
 30
0.0
 10
30.83364337449171
 20
56.36920017642869
 30
0.0
 10
30.00744731169398
 20
56.0762659641569
 30
0.0
 10
29.29862695120667
 20
55.76376720924092
 30
0.0
 10
28.88222975777736
 20
55.52090817562109
 30
0.0
 10
28.71512637839502
 20
55.42344698742915
 30
0.0
  0
LINE
  5
DF
330
1F
100
AcDbEntity
  8
0
  6
Continuous
 62
     7
370
    25
100
AcDbLine
 10
10.030087057
 20
-18.8602449825
 30
0.0
 11
30.2905160441
 21
-7.1641482867
 31
0.0
  0
LINE
  5
E0
330
1F
100
AcDbEntity
  8
0
  6
Continuous
 62
     7
370
    25
100
AcDbLine
 10
43.4190855722
 20
0.4148135791
 30
0.0
 11
56.246475152
 21
7.8199079617
 31
0.0
  0
LINE
  5
E1
330
1F
100
AcDbEntity
  8
0
  6
Continuous
 62
     7
370
    25
100
AcDbLine
 10
28.7487100045
 20
55.4525953926
 30
0.0
 11
-17.4676780905
 21
28.7724424484
 31
0.0
  0
LINE
  5
E2
330
1F
100
AcDbEntity
  8
0
  6
Continuous
 62
     7
370
    25
100
AcDbLine
 10
29.0645243053
 20
5.9350229336
 30
0.0
 11
29.3013447928
 21
-5.1424992004
 31
0.0
  0
LINE
  5
E3
330
1F
100
AcDbEntity
  8
0
  6
Continuous
 62
     7
370
    25
100
AcDbLine
 10
43.3002787213
 20
-5.1424992004
 30
0.0
 11
43.5375117553
 21
5.9543202224
 31
0.0
  0
SPLINE
  5
E4
330
1F
100
AcDbEntity
  8
0
  6
Continuous
 62
     7
370
    25
100
AcDbSpline
210
0.0
220
0.0
230
1.0
 70
     8
 71
     3
 72
    23
 73
    19
 74
     0
 42
0.00000001
 43
0.00000001
 40
0.0
 40
0.0
 40
0.0
 40
0.0
 40
0.0307722730697943
 40
0.0924843207367913
 40
0.1542139696288258
 40
0.2161414919187962
 40
0.2784334412144056
 40
0.3412332131547419
 40
0.4046523066716651
 40
0.4687630032356193
 40
0.5335937117330316
 40
0.5991283614907972
 40
0.6653107465923952
 40
0.7320536107696218
 40
0.7992509083753885
 40
0.8667907542634276
 40
0.9345665820626423
 40
0.9999999999999999
 40
0.9999999999999999
 40
0.9999999999999999
 40
0.9999999999999999
 10
-17.47027131557122
 20
28.75998638092289
 30
0.0
 10
-17.60345414464441
 20
28.68509346030786
 30
0.0
 10
-18.0037275808219
 20
28.46000703671588
 30
0.0
 10
-18.62888764586905
 20
28.01449233678736
 30
0.0
 10
-19.34422622737956
 20
27.43050109830367
 30
0.0
 10
-20.01296830598476
 20
26.78295543841507
 30
0.0
 10
-20.63643154740771
 20
26.07749170271394
 30
0.0
 10
-21.21261775439272
 20
25.31404370366919
 30
0.0
 10
-21.74026758922649
 20
24.4940580430604
 30
0.0
 10
-22.21774739612958
 20
23.61873346224244
 30
0.0
 10
-22.64338966008728
 20
22.68969930629806
 30
0.0
 10
-23.01548147267846
 20
21.70900197355214
 30
0.0
 10
-23.33243875944482
 20
20.6792354195019
 30
0.0
 10
-23.59276315803988
 20
19.60346188398094
 30
0.0
 10
-23.79573108050539
 20
18.48539122833315
 30
0.0
 10
-23.93924099152872
 20
17.32829916525203
 30
0.0
 10
-24.02706129449626
 20
16.15301090825771
 30
0.0
 10
-24.03769050491947
 20
15.35103493874426
 30
0.0
 10
-24.04291165577969
 20
14.95709810276318
 30
0.0
  0
SPLINE
  5
E5
330
1F
100
AcDbEntity
  8
0
  6
Continuous
 62
     7
370
    25
100
AcDbSpline
210
0.0
220
0.0
230
1.0
 70
     8
 71
     3
 72
    52
 73
    48
 74
     0
 42
0.00000001
 43
0.00000001
 40
0.0
 40
0.0
 40
0.0
 40
0.0
 40
0.0123932035379869
 40
0.0355764459940991
 40
0.0587396066968724
 40
0.0818829613869486
 40
0.1050003188422818
 40
0.1280886061380943
 40
0.1511470717860896
 40
0.1741766459633339
 40
0.1971794464061707
 40
0.2201584103280587
 40
0.2431170282990523
 40
0.2660591570320341
 40
0.2889888912303437
 40
0.311910478327231
 40
0.3348282632665711
 40
0.3577466531119433
 40
0.380669001902263
 40
0.403599388846459
 40
0.4265422853608913
 40
0.4495021388375836
 40
0.4724833297553595
 40
0.4954901045091968
 40
0.5185264721341933
 40
0.5415960499323188
 40
0.5647018390073515
 40
0.5878459063559902
 40
0.6110289464672338
 40
0.6342496944901638
 40
0.6575041689199822
 40
0.6807847409738893
 40
0.70407812485841
 40
0.7273596661216004
 40
0.7506022828535007
 40
0.7737720512552075
 40
0.7968293482889165
 40
0.8197315190340034
 40
0.8424370634412285
 40
0.8649107991780676
 40
0.8871289576762164
 40
0.9090830319683644
 40
0.9307815551145129
 40
0.9522496565046742
 40
0.973526845853012
 40
0.9946637466075959
 40
1.0
 40
1.0
 40
1.0
 40
1.0
 10
-24.04291165577969
 20
14.95709810276318
 30
0.0
 10
-24.04123219005476
 20
14.73622745584815
 30
0.0
 10
-24.03641104583011
 20
14.10218698216684
 30
0.0
 10
-23.98354518226271
 20
13.03671678349049
 30
0.0
 10
-23.86662077371281
 20
11.7568650409103
 30
0.0
 10
-23.6924735347074
 20
10.46021828661917
 30
0.0
 10
-23.46310985521628
 20
9.150602763927932
 30
0.0
 10
-23.17936569000492
 20
7.831380925581407
 30
0.0
 10
-22.84250457163808
 20
6.506013753903991
 30
0.0
 10
-22.45377439010402
 20
5.17788239628765
 30
0.0
 10
-22.01452093860795
 20
3.850353374038995
 30
0.0
 10
-21.52615591848971
 20
2.526772249987458
 30
0.0
 10
-20.9901653801312
 20
1.210470741400432
 30
0.0
 10
-20.40810760149022
 20
-0.0952344354149329
 30
0.0
 10
-19.78161325646295
 20
-1.387044103510825
 30
0.0
 10
-19.11238398530261
 20
-2.661681386978539
 30
0.0
 10
-18.40219019496886
 20
-3.915897589246348
 30
0.0
 10
-17.65287969720049
 20
-5.146459216429433
 30
0.0
 10
-16.86636872294678
 20
-6.350169362962614
 30
0.0
 10
-16.04463282318866
 20
-7.523882573113587
 30
0.0
 10
-15.189686263107
 20
-8.664528780918612
 30
0.0
 10
-14.30358237993885
 20
-9.769104718808325
 30
0.0
 10
-13.38841181151103
 20
-10.83467061878818
 30
0.0
 10
-12.44629665722528
 20
-11.85835207503665
 30
0.0
 10
-11.479385630509
 20
-12.83733995885003
 30
0.0
 10
-10.48985103583011
 20
-13.76888813068467
 30
0.0
 10
-9.479888670759465
 20
-14.65030881937052
 30
0.0
 10
-8.45172206848677
 20
-15.47896577469988
 30
0.0
 10
-7.407612817829558
 20
-16.25226571698652
 30
0.0
 10
-6.34987893315957
 20
-16.9676492915757
 30
0.0
 10
-5.280923205867372
 20
-17.62258377644313
 30
0.0
 10
-4.203287435994008
 20
-18.21455321224332
 30
0.0
 10
-3.119789814674065
 20
-18.7410302856864
 30
0.0
 10
-2.033518263363846
 20
-19.1995660629681
 30
0.0
 10
-0.9478674324072157
 20
-19.5878618746362
 30
0.0
 10
0.1335186889591077
 20
-19.903880667172
 30
0.0
 10
1.20669291200377
 20
-20.14592803576459
 30
0.0
 10
2.267474810450983
 20
-20.31277763027028
 30
0.0
 10
3.311574394073966
 20
-20.40377475268307
 30
0.0
 10
4.334768531602067
 20
-20.41891477905058
 30
0.0
 10
5.333039398682227
 20
-20.35877723527253
 30
0.0
 10
6.302847000323887
 20
-20.2246687787775
 30
0.0
 10
7.240733899775409
 20
-20.01768221379263
 30
0.0
 10
8.14509175319261
 20
-19.74150629538934
 30
0.0
 10
9.009675729091986
 20
-19.39136040371419
 30
0.0
 10
9.639843478761268
 20
-19.09247805800671
 30
0.0
 10
9.968218825563204
 20
-18.8902332588113
 30
0.0
 10
10.03441018487854
 20
-18.84946631846826
 30
0.0
  0
LINE
  5
E6
330
1F
100
AcDbEntity
  8
0
  6
Continuous
 62
     7
370
    25
100
AcDbLine
 10
43.4583987798
 20
53.8641231677
 30
0.0
 11
43.3002787213
 21
61.2603517095
 31
0.0
  0
LINE
  5
E7
330
1F
100
AcDbEntity
  8
0
  6
Continuous
 62
     7
370
    25
100
AcDbLine
 10
29.3013447928
 20
61.2603517095
 30
0.0
 11
29.1821838207
 21
55.6864745517
 31
0.0
  0
LWPOLYLINE
  5
E8
330
1F
100
AcDbEntity
  8
0
  6
Continuous
 62
     7
370
    25
100
AcDbPolyline
 90
      112
 70
   128
 43
0.0
 10
24.466369658
 20
42.8618632147
 10
24.4963819176
 20
44.0687271757
 10
24.586322558
 20
45.2370737703
 10
24.7359034723
 20
46.3631604321
 10
24.9446455078
 20
47.443379966
 10
25.2118800007
 20
48.4742721032
 10
25.5367509183
 20
49.4525345853
 10
25.9182176013
 20
50.3750337428
 10
26.3550580968
 20
51.2388145327
 10
26.845873073
 20
52.0411100048
 10
27.3890903016
 20
52.7793501647
 10
27.982969694
 20
53.4511702067
 10
28.6256088755
 20
54.0544180886
 10
29.3149492791
 20
54.5871614257
 10
30.0487827395
 20
55.0476936803
 10
30.8247585671
 20
55.4345396289
 10
31.6403910773
 20
55.7464600873
 10
32.4930675533
 20
55.9824558801
 10
33.3800566153
 20
56.1417710418
 10
34.2985169698
 20
56.2238952378
 10
35.2455065115
 20
56.2285653995
 10
36.2179917475
 20
56.1557665671
 10
37.2128575142
 20
56.0057319371
 10
38.2269169567
 20
55.7789421157
 10
39.256921737
 20
55.4761235791
 10
40.2995724391
 20
55.0982463462
 10
41.3515291386
 20
54.6465208719
 10
42.409422101
 20
54.122394169
 10
43.4698625762
 20
53.5275451734
 10
44.5294536537
 20
52.8638793656
 10
45.5848011438
 20
52.1335226674
 10
46.6325244503
 20
51.3388146314
 10
47.6692673997
 20
50.4823009472
 10
48.6917089917
 20
49.5667252861
 10
49.6965740376
 20
48.5950205132
 10
50.6806436518
 20
47.5702992916
 10
51.6407655626
 20
46.4958441125
 10
52.5738642102
 20
45.3750967797
 10
53.4769505981
 20
44.2116473847
 10
54.3471318684
 20
43.0092228068
 10
55.1816205683
 20
41.7716747743
 10
55.9777435788
 20
40.5029675268
 10
56.7329506779
 20
39.2071651159
 10
57.4448227096
 20
37.8884183875
 10
58.1110793332
 20
36.5509516849
 10
58.7295863278
 20
35.1990493172
 10
59.2983624291
 20
33.8370418351
 10
59.8155856757
 20
32.4692921594
 10
60.2795992457
 20
31.1001816046
 10
60.6889167637
 20
29.7340958444
 10
61.0422270622
 20
28.3754108635
 10
61.338398382
 20
27.0284789394
 10
61.576481997
 20
25.6976147012
 10
61.7557152535
 20
24.3870813082
 10
61.8755240134
 20
23.101076794
 10
61.9355244932
 20
21.8437206188
 10
61.9355244932
 20
20.6190404734
 10
61.8755240134
 20
19.4309593775
 10
61.7557152535
 20
18.2832831132
 10
61.576481997
 20
17.1796880334
 10
61.338398382
 20
16.1237092859
 10
61.0422270622
 20
15.118729489
 10
60.6889167637
 20
14.1679678959
 10
60.2795992457
 20
13.2744700827
 10
59.8155856757
 20
12.4410981922
 10
59.2983624291
 20
11.6705217658
 10
58.7295863278
 20
10.9652091922
 10
58.1110793332
 20
10.3274198001
 10
57.4448227096
 20
9.7591966213
 10
56.7329506779
 20
9.2623598458
 10
55.9777435788
 20
8.8385009918
 10
55.1816205683
 20
8.4889778067
 10
54.3471318684
 20
8.2149099189
 10
53.4769505981
 20
8.0171752503
 10
52.5738642102
 20
7.8964072047
 10
51.6407655626
 20
7.8529926387
 10
50.6806436518
 20
7.887070622
 10
49.6965740376
 20
7.9985319927
 10
48.6917089917
 20
8.1870197064
 10
47.6692673997
 20
8.4519299801
 10
46.6325244503
 20
8.7924142263
 10
45.5848011438
 20
9.2073817714
 10
44.5294536537
 20
9.6955033493
 10
43.4698625762
 20
10.2552153592
 10
42.409422101
 20
10.884724875
 10
41.3515291386
 20
11.5820153879
 10
40.2995724391
 20
12.3448532661
 10
39.256921737
 20
13.17079491
 10
38.2269169567
 20
14.0571945794
 10
37.2128575142
 20
15.001212869
 10
36.2179917475
 20
15.9998258036
 10
35.2455065115
 20
17.049834525
 10
34.2985169698
 20
18.1478755385
 10
33.3800566153
 20
19.2904314879
 10
32.4930675533
 20
20.473842422
 10
31.6403910773
 20
21.6943175188
 10
30.8247585671
 20
22.9479472286
 10
30.0487827395
 20
24.2307157975
 10
29.3149492791
 20
25.5385141311
 10
28.6256088755
 20
26.867152957
 10
27.982969694
 20
28.2123762445
 10
27.3890903016
 20
29.5698748379
 10
26.845873073
 20
30.9353002599
 10
26.3550580968
 20
32.3042786413
 10
25.9182176013
 20
33.6724247316
 10
25.5367509183
 20
35.0353559464
 10
25.2118800007
 20
36.3887064061
 10
24.9446455078
 20
37.7281409213
 10
24.7359034723
 20
39.0493688792
 10
24.586322558
 20
40.3481579886
 10
24.4963819176
 20
41.6203478363
 10
24.466369658
 20
42.8618632147
  0
LINE
  5
E9
330
1F
100
AcDbEntity
  8
0
  6
Continuous
 62
     7
370
    25
100
AcDbLine
 10
28.7135899918
 20
55.432217215
 30
0.0
 11
28.7487100045
 21
55.4525953926
 31
0.0
  0
LINE
  5
EA
330
1F
100
AcDbEntity
  8
0
  6
Continuous
 62
     7
370
    25
100
AcDbLine
 10
56.3942262961
 20
7.9070558264
 30
0.0
 11
56.246475152
 21
7.8199079617
 31
0.0
  0
SPLINE
  5
EB
330
1F
100
AcDbEntity
  8
0
  6
Continuous
 62
     7
370
    25
100
AcDbSpline
210
0.0
220
0.0
230
1.0
 70
     8
 71
     3
 72
    27
 73
    23
 74
     0
 42
0.00000001
 43
0.00000001
 40
0.0
 40
0.0
 40
0.0
 40
0.0
 40
0.0341111559613531
 40
0.0879806719241162
 40
0.1418429455591109
 40
0.1951982058827298
 40
0.2485480692861115
 40
0.3003861731663751
 40
0.3522285283496819
 40
0.4039302287137219
 40
0.4556385561911986
 40
0.508736067035136
 40
0.5618323963081286
 40
0.6157807831806473
 40
0.6697192428205004
 40
0.7224144666066509
 40
0.7751065794013795
 40
0.8262508636314425
 40
0.8774022697322988
 40
0.9290538137759305
 40
0.9807114236371313
 40
1.0
 40
1.0
 40
1.0
 40
1.0
 10
43.51469757117096
 20
5.954486410913029
 30
0.0
 10
43.51824651753772
 20
6.075783332131133
 30
0.0
 10
43.52740008261546
 20
6.388636541890036
 30
0.0
 10
43.30795193945966
 20
6.892606586065199
 30
0.0
 10
42.89087618649531
 20
7.45811075830205
 30
0.0
 10
42.27239669994978
 20
8.008029972968888
 30
0.0
 10
41.49696957390602
 20
8.526218467978385
 30
0.0
 10
40.58127201811555
 20
9.001663615417309
 30
0.0
 10
39.56370786069363
 20
9.421024585795658
 30
0.0
 10
38.46055539714989
 20
9.772026769020068
 30
0.0
 10
37.29448073535467
 20
10.04351280527601
 30
0.0
 10
36.09157418827513
 20
10.21457068464854
 30
0.0
 10
34.87664230858595
 20
10.27092226784922
 30
0.0
 10
33.69345108756382
 20
10.19017179270365
 30
0.0
 10
32.58290835027444
 20
9.968503832607679
 30
0.0
 10
31.58665861969434
 20
9.600093956183091
 30
0.0
 10
30.73480098795112
 20
9.107542930903415
 30
0.0
 10
30.04786214957429
 20
8.50022638492629
 30
0.0
 10
29.52567838408259
 20
7.806913161739468
 30
0.0
 10
29.19915680479033
 20
7.042840096689956
 30
0.0
 10
29.04826920204694
 20
6.405897584788326
 30
0.0
 10
29.07981969075037
 20
6.036337558415203
 30
0.0
 10
29.08839751632538
 20
5.935862999192975
 30
0.0
  0
LWPOLYLINE
  5
EC
330
1F
100
AcDbEntity
  8
0
  6
Continuous
 62
     7
370
    25
100
AcDbPolyline
 90
       98
 70
   128
 43
0.0
 10
28.9211423795
 20
40.2901776624
 10
28.9510974804
 20
41.3405466274
 10
29.0408371411
 20
42.3519245566
 10
29.1899849622
 20
43.3200693794
 10
29.397915366
 20
44.24092036
 10
29.66375622
 20
45.1106151294
 10
29.9863924954
 20
45.9255058855
 10
30.3644709434
 20
46.6821746932
 10
30.7964057717
 20
47.3774478207
 10
31.2803852955
 20
48.0084090507
 10
31.8143795365
 20
48.5724119127
 10
32.3961487372
 20
49.0670907826
 10
33.0232527555
 20
49.4903708053
 10
33.6930612991
 20
49.8404765973
 10
34.4027649583
 20
50.1159396932
 10
35.1493869893
 20
50.3156047051
 10
35.9297957998
 20
50.4386341686
 10
36.740718084
 20
50.4845120553
 10
37.578752552
 20
50.4530459373
 10
38.4403841961
 20
50.3443677947
 10
39.3219990338
 20
50.1589334612
 10
40.2198992659
 20
49.8975207128
 10
41.1303187869
 20
49.5612260056
 10
42.049438981
 20
49.1514598763
 10
42.9734047385
 20
48.6699410265
 10
43.8983406261
 20
48.1186891137
 10
44.8203671411
 20
47.5000162799
 10
45.735616984
 20
46.8165174539
 10
46.6402512788
 20
46.0710594674
 10
47.5304756749
 20
45.2667690303
 10
48.4025562618
 20
44.4070196162
 10
49.2528352305
 20
43.4954173128
 10
50.0777462155
 20
42.535785697
 10
50.8738292534
 20
41.5321497974
 10
51.6377452954
 20
40.4887192117
 10
52.366290212
 20
39.4098704504
 10
53.0564082326
 20
38.30012858
 10
53.7052047626
 20
37.1641482438
 10
54.3099585237
 20
36.0066941379
 10
54.8681329685
 20
34.8326210272
 10
55.3773869194
 20
33.6468533823
 10
55.8355843884
 20
32.4543647248
 10
56.240803536
 20
31.2601567666
 10
56.5913447324
 20
30.0692384307
 10
56.8857376859
 20
28.8866048427
 10
57.1227476101
 20
27.7172163787
 10
57.3013804031
 20
26.5659778604
 10
57.4208868169
 20
25.4377179822
 10
57.4807656
 20
24.3371690581
 10
57.4807656
 20
23.2689471728
 10
57.4208868169
 20
22.2375328201
 10
57.3013804031
 20
21.2472521103
 10
57.1227476101
 20
20.3022586247
 10
56.8857376859
 20
19.4065159946
 10
56.5913447324
 20
18.5637812757
 10
56.240803536
 20
17.7775891903
 10
55.8355843884
 20
17.0512373013
 10
55.3773869194
 20
16.3877721809
 10
54.8681329685
 20
15.7899766324
 10
54.3099585237
 20
15.2603580181
 10
53.7052047626
 20
14.8011377424
 10
53.0564082326
 20
14.414241935
 10
52.366290212
 20
14.1012933711
 10
51.6377452954
 20
13.8636046658
 10
50.8738292534
 20
13.7021727683
 10
50.0777462155
 20
13.6176747798
 10
49.2528352305
 20
13.6104651145
 10
48.4025562618
 20
13.680574012
 10
47.5304756749
 20
13.8277074115
 10
46.6402512788
 20
14.0512481841
 10
45.735616984
 20
14.3502587223
 10
44.8203671411
 20
14.7234848719
 10
43.8983406261
 20
15.1693611927
 10
42.9734047385
 20
15.6860175246
 10
42.049438981
 20
16.2712868313
 10
41.1303187869
 20
16.9227142899
 10
40.2198992659
 20
17.6375675873
 10
39.3219990338
 20
18.4128483803
 10
38.4403841961
 20
19.2453048719
 10
37.578752552
 20
20.1314454503
 10
36.740718084
 20
21.0675533338
 10
35.9297957998
 20
22.0497021607
 10
35.1493869893
 20
23.0737724575
 10
34.4027649583
 20
24.1354689175
 10
33.6930612991
 20
25.2303384168
 10
33.0232527555
 20
26.3537886922
 10
32.3961487372
 20
27.5011076028
 10
31.8143795365
 20
28.6674828944
 10
31.2803852955
 20
29.8480223836
 10
30.7964057717
 20
31.0377744777
 10
30.3644709434
 20
32.2317489427
 10
29.9863924954
 20
33.424937835
 10
29.66375622
 20
34.6123365056
 10
29.397915366
 20
35.7889645918
 10
29.1899849622
 20
36.9498869065
 10
29.0408371411
 20
38.0902341381
 10
28.9510974804
 20
39.2052232741
 10
28.9211423795
 20
40.2901776624
  0
LWPOLYLINE
  5
ED
330
1F
100
AcDbEntity
  8
0
  6
Continuous
 62
     7
370
    25
100
AcDbPolyline
 90
       58
 70
   128
 43
0.0
 10
31.3510642887
 20
-7.9500590994
 10
30.8365929899
 20
-7.6183758305
 10
30.388449905
 20
-7.2560334373
 10
30.0120748838
 20
-6.8674302655
 10
29.7120366093
 20
-6.4572834314
 10
29.4919771397
 20
-6.0305715618
 10
29.3545676989
 20
-5.5924743608
 10
29.3014762513
 20
-5.1483097349
 10
29.3333472552
 20
-4.7034692411
 10
29.4497938397
 20
-4.2633526403
 10
29.6494025012
 20
-3.8333023519
 10
29.9297502608
 20
-3.4185386039
 10
30.2874340764
 20
-3.0240960661
 10
30.7181121512
 20
-2.6547627368
 10
31.2165566367
 20
-2.3150218223
 10
31.776717092
 20
-2.008997317
 10
32.391793928
 20
-1.7404039438
 10
33.0543209452
 20
-1.5125020626
 10
33.7562559631
 20
-1.3280580933
 10
34.4890784413
 20
-1.1893109359
 10
35.2438929078
 20
-1.097944793
 10
36.0115369373
 20
-1.0550687257
 10
36.7826923713
 20
-1.0612031915
 10
37.5479984274
 20
-1.1162737262
 10
38.2981653268
 20
-1.2196118482
 10
39.0240870595
 20
-1.3699631726
 10
39.7169519192
 20
-1.565502638
 10
40.3683494648
 20
-1.8038566602
 10
40.9703726128
 20
-2.0821319442
 10
41.5157136175
 20
-2.3969506051
 10
41.9977527779
 20
-2.7444911708
 10
42.4106387916
 20
-3.1205349697
 10
42.7493597817
 20
-3.5205173392
 10
43.0098041342
 20
-3.9395830355
 10
43.1888104075
 20
-4.3726451685
 10
43.2842057079
 20
-4.8144469507
 10
43.2948320657
 20
-5.2596255069
 10
43.2205604913
 20
-5.7027769724
 10
43.0622925411
 20
-6.1385220887
 10
42.8219493734
 20
-6.5615715006
 10
42.5024484288
 20
-6.966789961
 10
42.107668016
 20
-7.349258667
 10
41.6424002344
 20
-7.7043349664
 10
41.1122928046
 20
-8.0277087141
 10
40.5237805127
 20
-8.3154545907
 10
39.8840071007
 20
-8.5640797511
 10
39.2007385511
 20
-8.7705662227
 10
38.4822688186
 20
-8.9324075395
 10
37.7373191524
 20
-9.0476391669
 10
36.9749322324
 20
-9.1148623493
 10
36.204362403
 20
-9.1332610882
 10
35.4349633381
 20
-9.1026120479
 10
34.6760745002
 20
-9.0232872662
 10
33.9369077716
 20
-8.8962496385
 10
33.2264356351
 20
-8.7230412295
 10
32.5532822601
 20
-8.5057645546
 10
31.9256188167
 20
-8.2470570584
 10
31.3510642887
 20
-7.9500590994
  0
LWPOLYLINE
  5
EE
330
1F
100
AcDbEntity
  8
0
  6
Continuous
 62
     7
370
    25
100
AcDbPolyline
 90
       48
 70
   128
 43
0.0
 10
32.9420545464
 20
-7.0315999736
 10
32.5243445749
 20
-6.7558601874
 10
32.1740257498
 20
-6.4504400317
 10
31.8973495188
 20
-6.1207897365
 10
31.6992531757
 20
-5.772791919
 10
31.5832717545
 20
-5.4126566087
 10
31.5514749464
 20
-5.0468104285
 10
31.6044301662
 20
-4.6817819124
 10
31.7411924268
 20
-4.3240850027
 10
31.9593212023
 20
-3.9801028093
 10
32.2549239796
 20
-3.6559737027
 10
32.6227257202
 20
-3.3574817743
 10
33.0561629932
 20
-3.0899536198
 10
33.5475011003
 20
-2.8581632853
 10
34.0879721013
 20
-2.666247075
 10
34.6679312783
 20
-2.517629738
 10
35.2770292462
 20
-2.4149633544
 10
35.9043966373
 20
-2.3600800081
 10
36.5388380655
 20
-2.3539590938
 10
37.1690319087
 20
-2.3967098394
 10
37.7837323426
 20
-2.4875693567
 10
38.3719700236
 20
-2.6249162555
 10
38.9232478362
 20
-2.8062995772
 10
39.4277282149
 20
-3.0284825321
 10
39.8764086953
 20
-3.2875002601
 10
40.2612825637
 20
-3.5787305837
 10
40.5754817367
 20
-3.8969764909
 10
40.8133993226
 20
-4.236558876
 10
40.9707896765
 20
-4.5914178831
 10
41.0448441638
 20
-4.955221045
 10
41.0342412804
 20
-5.3214762855
 10
40.939170235
 20
-5.6836477713
 10
40.7613275728
 20
-6.0352725437
 10
40.5038869001
 20
-6.3700758501
 10
40.1714422519
 20
-6.6820831177
 10
39.7699261108
 20
-6.9657265694
 10
39.3065035419
 20
-7.2159445811
 10
38.7894443319
 20
-7.4282720064
 10
38.2279754146
 20
-7.5989198574
 10
37.6321162162
 20
-7.7248429192
 10
37.0124998582
 20
-7.8037940917
 10
36.3801834092
 20
-7.8343644893
 10
35.7464505712
 20
-7.8160085827
 10
35.1226103216
 20
-7.7490539335
 10
34.5197951046
 20
-7.6346953488
 10
33.9487621719
 20
-7.4749735604
 10
33.4197016198
 20
-7.2727388073
 10
32.9420545464
 20
-7.0315999736
  0
LWPOLYLINE
  5
EF
330
1F
100
AcDbEntity
  8
0
  6
Continuous
 62
     7
370
    25
100
AcDbPolyline
 90
       30
 70
   128
 43
0.0
 10
29.3013447928
 20
61.2603517095
 10
29.3333472552
 20
61.599644684
 10
29.4497938397
 20
62.0397612848
 10
29.6494025012
 20
62.4698115732
 10
29.9297502608
 20
62.8845753213
 10
30.2874340764
 20
63.279017859
 10
30.7181121512
 20
63.6483511883
 10
31.2165566367
 20
63.9880921028
 10
31.776717092
 20
64.2941166081
 10
32.391793928
 20
64.5627099813
 10
33.0543209452
 20
64.7906118626
 10
33.7562559631
 20
64.9750558319
 10
34.4890784413
 20
65.1138029892
 10
35.2438929078
 20
65.2051691322
 10
36.0115369373
 20
65.2480451994
 10
36.7826923713
 20
65.2419107336
 10
37.5479984274
 20
65.1868401989
 10
38.2981653268
 20
65.083502077
 10
39.0240870595
 20
64.9331507526
 10
39.7169519192
 20
64.7376112872
 10
40.3683494648
 20
64.499257265
 10
40.9703726128
 20
64.2209819809
 10
41.5157136175
 20
63.90616332
 10
41.9977527779
 20
63.5586227543
 10
42.4106387916
 20
63.1825789555
 10
42.7493597817
 20
62.7825965859
 10
43.0098041342
 20
62.3635308896
 10
43.1888104075
 20
61.9304687566
 10
43.2842057079
 20
61.4886669744
 10
43.3002787213
 20
61.2603517095
  0
LWPOLYLINE
  5
F0
330
1F
100
AcDbEntity
  8
0
  6
Continuous
 62
     7
370
    25
100
AcDbPolyline
 90
       16
 70
   128
 43
0.0
 10
23.0521560956
 20
42.8618632147
 10
23.0822084605
 20
44.092438547
 10
23.1722726651
 20
45.2845125194
 10
23.322070326
 20
46.4344004998
 10
23.5311384273
 20
47.5385482502
 10
23.7988307514
 20
48.5935429133
 10
24.1243198768
 20
49.5961235609
 10
24.5065997352
 20
50.5431912737
 10
24.9444887214
 20
51.4318187198
 10
25.4366333457
 20
52.2592592025
 10
25.9815124173
 20
53.0229551509
 10
26.5774417462
 20
53.7205460245
 10
27.2225793489
 20
54.3498756098
 10
27.9149311421
 20
54.9089986852
 10
28.6523571062
 20
55.3961870333
 10
28.7135899918
 20
55.432217215
  0
LWPOLYLINE
  5
F1
330
1F
100
AcDbEntity
  8
0
  6
Continuous
 62
     7
370
    25
100
AcDbPolyline
 90
       44
 70
   128
 43
0.0
 10
56.246475152
 20
7.8199079617
 10
55.9579192959
 20
7.6601770718
 10
55.1571974637
 20
7.2836435483
 10
54.3173455183
 20
6.9823825408
 10
53.4409593939
 20
6.7573252301
 10
52.5307479498
 20
6.6091672552
 10
51.5895245974
 20
6.538366564
 10
50.6201986042
 20
6.5451419974
 10
49.6257661012
 20
6.629472613
 10
48.6093008224
 20
6.7910977495
 10
47.5739446036
 20
7.029517833
 10
46.5228976717
 20
7.3439959206
 10
45.4594087524
 20
7.7335599787
 10
44.386765029
 20
8.197005887
 10
43.3082819819
 20
8.7329011608
 10
42.2272931402
 20
9.3395893785
 10
41.1471397787
 20
10.0151953016
 10
40.0711605893
 20
10.7576306709
 10
39.0026813622
 20
11.5646006612
 10
37.9450047054
 20
12.4336109746
 10
36.9013998367
 20
13.3619755499
 10
35.8750924792
 20
14.3468248654
 10
34.8692548899
 20
15.3851148084
 10
33.8869960552
 20
16.4736360842
 10
32.931352081
 20
17.6090241358
 10
32.0052768079
 20
18.7877695439
 10
31.1116326816
 20
20.006228874
 10
30.2531819048
 20
21.260635938
 10
29.4325778997
 20
22.5471134357
 10
28.6523571062
 20
23.8616849388
 10
27.9149311421
 20
25.2002871822
 10
27.2225793489
 20
26.558782623
 10
26.5774417462
 20
27.9329722296
 10
25.9815124173
 20
29.3186084608
 10
25.4366333457
 20
30.7114083944
 10
24.9444887214
 20
32.1070669655
 10
24.5065997352
 20
33.5012702736
 10
24.1243198768
 20
34.8897089161
 10
23.7988307514
 20
36.2680913087
 10
23.5311384273
 20
37.6321569504
 10
23.322070326
 20
38.9776895925
 10
23.1722726651
 20
40.3005302708
 10
23.0822084605
 20
41.5965901605
 10
23.0521560956
 20
42.8618632147
  0
LWPOLYLINE
  5
F2
330
1F
100
AcDbEntity
  8
0
  6
Continuous
 62
     7
370
    25
100
AcDbPolyline
 90
       16
 70
   128
 43
0.0
 10
-23.1642319993
 20
16.1817102705
 10
-23.1341796344
 20
17.4122856028
 10
-23.0441154299
 20
18.6043595753
 10
-22.894317769
 20
19.7542475556
 10
-22.6852496677
 20
20.858395306
 10
-22.4175573435
 20
21.9133899691
 10
-22.0920682181
 20
22.9159706167
 10
-21.7097883598
 20
23.8630383295
 10
-21.2718993736
 20
24.7516657756
 10
-20.7797547492
 20
25.5791062584
 10
-20.2348756777
 20
26.3428022067
 10
-19.6389463488
 20
27.0403930803
 10
-18.9938087461
 20
27.6697226656
 10
-18.3014569528
 20
28.228845741
 10
-17.5640309888
 20
28.7160340891
 10
-17.4676780905
 20
28.7724424484
  0
LWPOLYLINE
  5
F3
330
1F
100
AcDbEntity
  8
0
  6
Continuous
 62
     7
370
    25
100
AcDbPolyline
 90
       44
 70
   128
 43
0.0
 10
10.030087057
 20
-18.8602449825
 10
9.741531201
 20
-19.0199758724
 10
8.9408093688
 20
-19.3965093959
 10
8.1009574233
 20
-19.6977704034
 10
7.2245712989
 20
-19.9228277141
 10
6.3143598548
 20
-20.070985689
 10
5.3731365024
 20
-20.1417863802
 10
4.4038105092
 20
-20.1350109468
 10
3.4093780063
 20
-20.0506803312
 10
2.3929127274
 20
-19.8890551947
 10
1.3575565087
 20
-19.6506351112
 10
0.3065095767
 20
-19.3361570236
 10
-0.7569793426
 20
-18.9465929655
 10
-1.8296230659
 20
-18.4831470572
 10
-2.9081061131
 20
-17.9472517834
 10
-3.9890949547
 20
-17.3405635657
 10
-5.0692483163
 20
-16.6649576426
 10
-6.1452275056
 20
-15.9225222733
 10
-7.2137067328
 20
-15.115552283
 10
-8.2713833896
 20
-14.2465419696
 10
-9.3149882582
 20
-13.3181773943
 10
-10.3412956158
 20
-12.3333280788
 10
-11.3471332051
 20
-11.2950381358
 10
-12.3293920397
 20
-10.20651686
 10
-13.285036014
 20
-9.0711288084
 10
-14.2111112871
 20
-7.8923834003
 10
-15.1047554134
 20
-6.6739240702
 10
-15.9632061902
 20
-5.4195170062
 10
-16.7838101953
 20
-4.1330395085
 10
-17.5640309888
 20
-2.8184680054
 10
-18.3014569528
 20
-1.479865762
 10
-18.9938087461
 20
-0.1213703212
 10
-19.6389463488
 20
1.2528192854
 10
-20.2348756777
 20
2.6384555166
 10
-20.7797547492
 20
4.0312554502
 10
-21.2718993736
 20
5.4269140213
 10
-21.7097883598
 20
6.8211173294
 10
-22.0920682181
 20
8.2095559719
 10
-22.4175573435
 20
9.5879383645
 10
-22.6852496677
 20
10.9520040062
 10
-22.894317769
 20
12.2975366483
 10
-23.0441154299
 20
13.6203773266
 10
-23.1341796344
 20
14.9164372163
 10
-23.1642319993
 20
16.1817102705
  0
LINE
  5
F4
330
1F
100
AcDbEntity
  8
0
  6
Continuous
 62
     7
370
    25
100
AcDbLine
 10
109.899234026
 20
30.3959971335
 30
0.0
 11
109.899234026
 21
-34.9638457143
 31
0.0
  0
LINE
  5
F5
330
1F
100
AcDbEntity
  8
0
  6
Continuous
 62
     7
370
    25
100
AcDbLine
 10
164.899234026
 20
-34.9638457143
 30
0.0
 11
164.899234026
 21
30.3959971335
 31
0.0
  0
ARC
  5
F6
330
1F
100
AcDbEntity
  8
0
  6
Continuous
 62
     7
370
    25
100
AcDbCircle
 10
112.899234026
 20
30.3959971335
 30
0.0
 40
2.999999999999994
100
AcDbArc
 50
111.4489225277
 51
180.0
  0
ARC
  5
F7
330
1F
100
AcDbEntity
  8
0
  6
Continuous
 62
     7
370
    25
100
AcDbCircle
 10
161.899234026
 20
30.3959971335
 30
0.0
 40
2.999999999999994
100
AcDbArc
 50
0.0
 51
68.5510774723
  0
ARC
  5
F8
330
1F
100
AcDbEntity
  8
0
  6
Continuous
 62
     7
370
    25
100
AcDbCircle
 10
110.899234026
 20
-34.9638457143
 30
0.0
 40
1.000000000000007
100
AcDbArc
 50
180.0
 51
270.0
  0
ARC
  5
F9
330
1F
100
AcDbEntity
  8
0
  6
Continuous
 62
     7
370
    25
100
AcDbCircle
 10
163.899234026
 20
-34.9638457143
 30
0.0
 40
1.000000000000007
100
AcDbArc
 50
270.0
 51
0.0
  0
ARC
  5
FA
330
1F
100
AcDbEntity
  8
0
  6
Continuous
 62
     7
370
    25
100
AcDbCircle
 10
137.399234026
 20
-31.9638457143
 30
0.0
 40
70.0
100
AcDbArc
 50
68.5510774723
 51
90.0
  0
ARC
  5
FB
330
1F
100
AcDbEntity
  8
0
  6
Continuous
 62
     7
370
    25
100
AcDbCircle
 10
137.399234026
 20
-31.9638457143
 30
0.0
 40
70.0
100
AcDbArc
 50
90.0
 51
111.4489225277
  0
SPLINE
  5
FC
330
1F
100
AcDbEntity
  8
0
  6
Continuous
 62
     7
370
    25
100
AcDbSpline
210
0.0
220
0.0
230
1.0
 70
    11
 71
     3
 72
    89
 73
    85
 74
     0
 42
0.00000001
 43
0.00000001
 40
0.0
 40
0.0
 40
0.0
 40
0.0
 40
0.0312500000000001
 40
0.0312500000000001
 40
0.046875
 40
0.046875
 40
0.0625
 40
0.0625
 40
0.0937500000000001
 40
0.0937500000000001
 40
0.1250000000000001
 40
0.1250000000000001
 40
0.1562500000000001
 40
0.1562500000000001
 40
0.1718750000000001
 40
0.1718750000000001
 40
0.1875000000000001
 40
0.1875000000000001
 40
0.2031250000000002
 40
0.2031250000000002
 40
0.2187500000000002
 40
0.2187500000000002
 40
0.2500000000000002
 40
0.2500000000000002
 40
0.2812500000000003
 40
0.2812500000000003
 40
0.3125000000000003
 40
0.3125000000000003
 40
0.3281250000000004
 40
0.3281250000000004
 40
0.3437500000000005
 40
0.3437500000000005
 40
0.3750000000000007
 40
0.3750000000000007
 40
0.4062500000000009
 40
0.4062500000000009
 40
0.4218750000000008
 40
0.4218750000000008
 40
0.4375000000000008
 40
0.4375000000000008
 40
0.4687500000000009
 40
0.4687500000000009
 40
0.4843750000000009
 40
0.4843750000000009
 40
0.500000000000001
 40
0.500000000000001
 40
0.531250000000001
 40
0.531250000000001
 40
0.5625000000000009
 40
0.5625000000000009
 40
0.5781250000000009
 40
0.5781250000000009
 40
0.593750000000001
 40
0.593750000000001
 40
0.6250000000000009
 40
0.6250000000000009
 40
0.6562500000000009
 40
0.6562500000000009
 40
0.6875000000000008
 40
0.6875000000000008
 40
0.7187500000000008
 40
0.7187500000000008
 40
0.7343750000000008
 40
0.7343750000000008
 40
0.7500000000000008
 40
0.7500000000000008
 40
0.7812500000000008
 40
0.7812500000000008
 40
0.8125000000000008
 40
0.8125000000000008
 40
0.8437500000000007
 40
0.8437500000000007
 40
0.8593750000000007
 40
0.8593750000000007
 40
0.8750000000000008
 40
0.8906250000000008
 40
0.8906250000000008
 40
0.9062500000000008
 40
0.9062500000000008
 40
0.9375000000000006
 40
0.9375000000000006
 40
0.9687500000000002
 40
0.9687500000000002
 40
1.0
 40
1.0
 40
1.0
 40
1.0
 10
142.5697920917679
 20
-21.13641044868577
 30
0.0
 10
142.2360213473514
 20
-20.79720121120785
 30
0.0
 10
141.8745751530152
 20
-20.49609782942535
 30
0.0
 10
141.2919710954445
 20
-20.09903679546093
 30
0.0
 10
141.090979536212
 20
-19.97585405522849
 30
0.0
 10
140.6749774220847
 20
-19.74826040065532
 30
0.0
 10
140.4592209764418
 20
-19.64366449401736
 30
0.0
 10
139.8046396049389
 20
-19.36520439262573
 30
0.0
 10
139.3544776500707
 20
-19.22374481666738
 30
0.0
 10
138.4263760214245
 20
-19.02899822200956
 30
0.0
 10
137.9450528676199
 20
-18.97664739462289
 30
0.0
 10
136.9967900175956
 20
-18.96728605924845
 30
0.0
 10
136.5249373032478
 20
-19.00861807276578
 30
0.0
 10
135.8206452890323
 20
-19.14124732493854
 30
0.0
 10
135.5871552040288
 20
-19.19734252895422
 30
0.0
 10
135.1317406402355
 20
-19.33065230373992
 30
0.0
 10
134.9085138029802
 20
-19.40808717865374
 30
0.0
 10
134.4708260918311
 20
-19.58416822391718
 30
0.0
 10
134.2563653377121
 20
-19.6828144281805
 30
0.0
 10
133.8362668530606
 20
-19.90160770485955
 30
0.0
 10
133.6296396693978
 20
-20.02247708853332
 30
0.0
 10
133.0345173802178
 20
-20.41109637623235
 30
0.0
 10
132.668225919828
 20
-20.70522372252474
 30
0.0
 10
131.994722477736
 20
-21.36279808100062
 30
0.0
 10
131.6859386882447
 20
-21.72986704166153
 30
0.0
 10
131.1534343936842
 20
-22.50619058433784
 30
0.0
 10
130.926208176951
 20
-22.91791501493491
 30
0.0
 10
130.6452421073975
 20
-23.57230610866961
 30
0.0
 10
130.5615046846891
 20
-23.79745367146025
 30
0.0
 10
130.4181850025917
 20
-24.25028656263196
 30
0.0
 10
130.3580429627183
 20
-24.47906825275793
 30
0.0
 10
130.2116234590999
 20
-25.17243386130723
 30
0.0
 10
130.1589924730091
 20
-25.64570382701126
 30
0.0
 10
130.1490117715237
 20
-26.60476506739036
 30
0.0
 10
130.1914634430033
 20
-27.07696762219084
 30
0.0
 10
130.3236037438613
 20
-27.77473661521881
 30
0.0
 10
130.3791462839556
 20
-28.00555819875843
 30
0.0
 10
130.513802485779
 20
-28.46359383737363
 30
0.0
 10
130.5927135697167
 20
-28.68964854648002
 30
0.0
 10
130.8594184271248
 20
-29.34792096479545
 30
0.0
 10
131.0781533657291
 20
-29.76497483688841
 30
0.0
 10
131.4677150835253
 20
-30.35840032119076
 30
0.0
 10
131.6086047303653
 20
-30.55155778547793
 30
0.0
 10
131.9057309564962
 20
-30.91946273625658
 30
0.0
 10
132.062387354454
 20
-31.09502878534386
 30
0.0
 10
132.5562253039359
 20
-31.59724500630897
 30
0.0
 10
132.9179499263758
 20
-31.90029589059672
 30
0.0
 10
133.7044726833172
 20
-32.43654184977586
 30
0.0
 10
134.1180481958749
 20
-32.66233239400495
 30
0.0
 10
134.7683381429297
 20
-32.93964211182679
 30
0.0
 10
134.9901251750157
 20
-33.02177136668753
 30
0.0
 10
135.4440973075653
 20
-33.16482360153911
 30
0.0
 10
135.6768795384391
 20
-33.22572500035567
 30
0.0
 10
136.3750708042807
 20
-33.37206782624907
 30
0.0
 10
136.8453379678418
 20
-33.42335114525758
 30
0.0
 10
137.7954901113789
 20
-33.43366450305903
 30
0.0
 10
138.2777125237731
 20
-33.39115254685672
 30
0.0
 10
139.2086906084437
 20
-33.21581545127959
 30
0.0
 10
139.6628713723594
 20
-33.08357057590668
 30
0.0
 10
140.5483135700019
 20
-32.72784842565923
 30
0.0
 10
140.9690293702968
 20
-32.50815710600454
 30
0.0
 10
141.56009014071
 20
-32.12276378554948
 30
0.0
 10
141.750905189596
 20
-31.9847124338109
 30
0.0
 10
142.1199976428744
 20
-31.68905822368376
 30
0.0
 10
142.2989260100696
 20
-31.5306938120013
 30
0.0
 10
142.8061199950331
 20
-31.03530478353608
 30
0.0
 10
143.1082954076851
 20
-30.67610305859818
 30
0.0
 10
143.6419398259424
 20
-29.89960898651292
 30
0.0
 10
143.8741962539484
 20
-29.47842580454515
 30
0.0
 10
144.2463869389435
 20
-28.61095990392745
 30
0.0
 10
144.3894345260367
 20
-28.16135111739819
 30
0.0
 10
144.5375908363495
 20
-27.46213883522455
 30
0.0
 10
144.5757668821687
 20
-27.22416882434999
 30
0.0
 10
144.627750985316
 20
-26.75080989363976
 30
0.0
 10
144.6560682030641
 20
-26.27746143340258
 30
0.0
 10
144.6378854373189
 20
-25.80413357178455
 30
0.0
 10
144.5961900216007
 20
-25.33081611715226
 30
0.0
 10
144.5633504782007
 20
-25.09299616366769
 30
0.0
 10
144.429817983804
 20
-24.38808085296821
 30
0.0
 10
144.2959572566242
 20
-23.93447332724686
 30
0.0
 10
143.9417627571566
 20
-23.05839673199015
 30
0.0
 10
143.7185894806701
 20
-22.632632560463
 30
0.0
 10
143.1997311852754
 20
-21.84287539457103
 30
0.0
 10
142.9035628361844
 20
-21.47561968616369
 30
0.0
 10
142.5697920917679
 20
-21.13641044868577
 30
0.0
  0
CIRCLE
  5
FD
330
1F
100
AcDbEntity
  8
0
  6
Continuous
 62
     7
370
    25
100
AcDbCircle
 10
137.399234026
 20
-26.2002742339
 30
0.0
 40
7.000000000000004
  0
CIRCLE
  5
FE
330
1F
100
AcDbEntity
  8
0
  6
Continuous
 62
     7
370
    25
100
AcDbCircle
 10
137.399234026
 20
-26.2002742339
 30
0.0
 40
4.75
  0
LINE
  5
FF
330
1F
100
AcDbEntity
  8
0
  6
Continuous
 62
     7
370
    25
100
AcDbLine
 10
110.899234026
 20
-35.9638457143
 30
0.0
 11
163.8992340253
 21
-35.9638457143
 31
0.0
  0
LINE
  5
100
330
1F
100
AcDbEntity
  8
0
  6
Continuous
 62
     7
370
    25
100
AcDbLine
 10
109.899234026
 20
-34.9638457143
 30
0.0
 11
164.899234026
 21
-34.9638457143
 31
0.0
  0
LINE
  5
101
330
1F
100
AcDbEntity
  8
0
  6
Continuous
 62
     7
370
    25
100
AcDbLine
 10
109.899234026
 20
30.3959971335
 30
0.0
 11
164.899234026
 21
30.3959971335
 31
0.0
  0
LINE
  5
102
330
1F
100
AcDbEntity
  8
0
  6
Continuous
 62
     7
370
    25
100
AcDbLine
 10
111.8022191006
 20
33.1882289028
 30
0.0
 11
162.9962489513
 21
33.1882289028
 31
0.0
  0
INSERT
  5
10E
330
1F
100
AcDbEntity
  8
FORMAT
 62
     7
100
AcDbBlockReference
  2
SW_CENTERMARKSYMBOL_1
 10
137.399234026
 20
-26.2002742339
 30
0.0
  0
SPLINE
  5
10F
330
1F
100
AcDbEntity
  8
0
  6
Continuous
 62
     7
370
    25
100
AcDbSpline
210
0.0
220
0.0
230
1.0
 70
     8
 71
     3
 72
    53
 73
    49
 74
     0
 42
0.00000001
 43
0.00000001
 40
0.0
 40
0.0
 40
0.0
 40
0.0
 40
0.000770044372517
 40
0.022451604079153
 40
0.0441253127525747
 40
0.0658186404896896
 40
0.0875637790844194
 40
0.1093868640465207
 40
0.1313056446688387
 40
0.1533285162636273
 40
0.1754549553389583
 40
0.197677112140782
 40
0.2199820946835085
 40
0.2423544024502657
 40
0.2647780540206943
 40
0.2872381442138432
 40
0.309721771280519
 40
0.3322184222270971
 40
0.3547197223279639
 40
0.3772183902720121
 40
0.3997108133340256
 40
0.4221947292986853
 40
0.4446689130364644
 40
0.4671329141503711
 40
0.4895868475530608
 40
0.5120312319256715
 40
0.5344668684535901
 40
0.5568947519103445
 40
0.5793160069014853
 40
0.6017318432090364
 40
0.6241435253383615
 40
0.6465523523987673
 40
0.6689596452868312
 40
0.6913667387783539
 40
0.7137747539290474
 40
0.7361848149884089
 40
0.7585982741388483
 40
0.7810164813756729
 40
0.8034407765129262
 40
0.8258724762644062
 40
0.8483128538911209
 40
0.8707631082877895
 40
0.89322431849619
 40
0.9156973785343567
 40
0.9381829061664069
 40
0.9606811179556776
 40
0.9831916619776553
 40
1.0
 40
1.0
 40
1.0
 40
1.0
 10
255.5643497882376
 20
45.98848147252512
 30
0.0
 10
255.5558017158134
 20
45.99408973311746
 30
0.0
 10
255.3065720031395
 20
46.15760556530314
 30
0.0
 10
254.780886655554
 20
46.41900586895313
 30
0.0
 10
253.9877728654552
 20
46.76566382153354
 30
0.0
 10
253.1571483706905
 20
47.03701331109797
 30
0.0
 10
252.2967688322535
 20
47.24204859633558
 30
0.0
 10
251.4069639483396
 20
47.37762647866415
 30
0.0
 10
250.4901778874993
 20
47.44389175580365
 30
0.0
 10
249.5485301361566
 20
47.44019171394515
 30
0.0
 10
248.5845278519797
 20
47.36627177899913
 30
0.0
 10
247.6008760791058
 20
47.2220485049242
 30
0.0
 10
246.6004837213519
 20
47.00774333727904
 30
0.0
 10
245.5863864433664
 20
46.72388398501379
 30
0.0
 10
244.5616829108883
 20
46.37130587091586
 30
0.0
 10
243.5294763086694
 20
45.95112632510477
 30
0.0
 10
242.4928337335289
 20
45.46471114159266
 30
0.0
 10
241.4547663990558
 20
44.91364160530134
 30
0.0
 10
240.4182363845052
 20
44.29969500979611
 30
0.0
 10
239.3861274816037
 20
43.62480888831613
 30
0.0
 10
238.3612470530409
 20
42.89105898182842
 30
0.0
 10
237.346317813433
 20
42.10063165409976
 30
0.0
 10
236.344012854473
 20
41.25583538184372
 30
0.0
 10
235.3569584366704
 20
40.35909627667368
 30
0.0
 10
234.3877346476783
 20
39.41295446165203
 30
0.0
 10
233.4388741418017
 20
38.42006056888973
 30
0.0
 10
232.5128593069416
 20
37.38317189876979
 30
0.0
 10
231.6121182359373
 20
36.30514798502902
 30
0.0
 10
230.7390198533317
 20
35.18894544841697
 30
0.0
 10
229.8958685010535
 20
34.03761211125504
 30
0.0
 10
229.0848982343345
 20
32.85428040006291
 30
0.0
 10
228.3082670310969
 20
31.64216009509874
 30
0.0
 10
227.5680510778964
 20
30.40453050422241
 30
0.0
 10
226.8662415865248
 20
29.14473631809486
 30
0.0
 10
226.204738886753
 20
27.86617928357035
 30
0.0
 10
225.5853446858767
 20
26.57230495248153
 30
0.0
 10
225.0097558953526
 20
25.26658875489737
 30
0.0
 10
224.4795616135746
 20
23.95252629378517
 30
0.0
 10
223.9962419488712
 20
22.63362821723156
 30
0.0
 10
223.5611661105395
 20
21.31341144513786
 30
0.0
 10
223.1755878682078
 20
19.99538898789337
 30
0.0
 10
222.8406538041523
 20
18.68306682061685
 30
0.0
 10
222.5573666791271
 20
17.3799172111088
 30
0.0
 10
222.3267190317191
 20
16.08944397761845
 30
0.0
 10
222.1491929336688
 20
14.81490977289755
 30
0.0
 10
222.026628096854
 20
13.56033269414173
 30
0.0
 10
221.9612825089715
 20
12.43111733817031
 30
0.0
 10
221.9542068801223
 20
11.72994876488863
 30
0.0
 10
221.9511821358967
 20
11.43020783184078
 30
0.0
  0
SPLINE
  5
110
330
1F
100
AcDbEntity
  8
0
  6
Continuous
 62
     7
370
    25
100
AcDbSpline
210
0.0
220
0.0
230
1.0
 70
     8
 71
     3
 72
    23
 73
    19
 74
     0
 42
0.00000001
 43
0.00000001
 40
0.0
 40
0.0
 40
0.0
 40
0.0
 40
0.0358479952974491
 40
0.1037580557416827
 40
0.1716925041732549
 40
0.2396141669441756
 40
0.3074959083340187
 40
0.375302736035788
 40
0.4429918792980578
 40
0.5105142307036667
 40
0.5778176662921893
 40
0.6448525069675897
 40
0.7115788191767488
 40
0.7779744857696614
 40
0.8440423109150154
 40
0.9098142372020721
 40
0.9753512500551463
 40
1.0
 40
1.0
 40
1.0
 40
1.0
 10
221.9511821358967
 20
11.43020783184078
 30
0.0
 10
221.9527321017228
 20
11.22008657544569
 30
0.0
 10
221.9572183062998
 20
10.61191384911461
 30
0.0
 10
222.0070635149634
 20
9.628761068620967
 30
0.0
 10
222.1189711848471
 20
8.494323778893653
 30
0.0
 10
222.2871933422966
 20
7.397166446987562
 30
0.0
 10
222.5105666985282
 20
6.340169184303568
 30
0.0
 10
222.7889366934678
 20
5.326711453318525
 30
0.0
 10
223.1215803961928
 20
4.359974049959026
 30
0.0
 10
223.5075847976293
 20
3.443116464471131
 30
0.0
 10
223.9457044339146
 20
2.579155882199301
 30
0.0
 10
224.4344114763028
 20
1.770959285455152
 30
0.0
 10
224.9718099966415
 20
1.020990794292249
 30
0.0
 10
225.5560646586906
 20
0.33188559299702
 30
0.0
 10
226.1841077964841
 20
-0.2959608474880932
 30
0.0
 10
226.8568367305562
 20
-0.855605933704099
 30
0.0
 10
227.4145943948134
 20
-1.260372806615654
 30
0.0
 10
227.7604829968082
 20
-1.455154331509938
 30
0.0
 10
227.8550181140467
 20
-1.508390240948922
 30
0.0
  0
LINE
  5
111
330
1F
100
AcDbEntity
  8
0
  6
Continuous
 62
     7
370
    25
100
AcDbLine
 10
301.654782506
 20
19.3838060848
 30
0.0
 11
255.4383944111
 21
46.063959029
 31
0.0
  0
LINE
  5
112
330
1F
100
AcDbEntity
  8
0
  6
Continuous
 62
     7
370
    25
100
AcDbLine
 10
227.9406292636
 20
-1.568728402
 30
0.0
 11
240.7680188433
 21
-8.9738227845
 31
0.0
  0
LINE
  5
113
330
1F
100
AcDbEntity
  8
0
  6
Continuous
 62
     7
370
    25
100
AcDbLine
 10
253.8965883715
 20
-16.5527846504
 30
0.0
 11
274.1570173585
 21
-28.2488813462
 31
0.0
  0
LINE
  5
114
330
1F
100
AcDbEntity
  8
0
  6
Continuous
 62
     7
370
    25
100
AcDbLine
 10
240.6495876672
 20
-3.4340825838
 30
0.0
 11
240.8868256943
 21
-14.5311355641
 31
0.0
  0
LINE
  5
115
330
1F
100
AcDbEntity
  8
0
  6
Continuous
 62
     7
370
    25
100
AcDbLine
 10
254.8857596228
 20
-14.5311355641
 30
0.0
 11
255.1225806254
 21
-3.4535893313
 31
0.0
  0
SPLINE
  5
116
330
1F
100
AcDbEntity
  8
0
  6
Continuous
 62
     7
370
    25
100
AcDbSpline
210
0.0
220
0.0
230
1.0
 70
     8
 71
     3
 72
    67
 73
    63
 74
     0
 42
0.00000001
 43
0.00000001
 40
0.0
 40
0.0
 40
0.0
 40
0.0
 40
0.0057829574865627
 40
0.0214665685156646
 40
0.0371494213612209
 40
0.0528752175263219
 40
0.0686870244933374
 40
0.0846224050587823
 40
0.1007111627049531
 40
0.1169734030330146
 40
0.1334182149509204
 40
0.1500433266231765
 40
0.1668359977715256
 40
0.1837751493258446
 40
0.2008343864552906
 40
0.2179853071291986
 40
0.235200448059141
 40
0.2524554144891596
 40
0.2697300472282593
 40
0.2870061042255057
 40
0.3042720515135451
 40
0.3215213712636794
 40
0.3387503072338719
 40
0.3559572124562319
 40
0.3731419972125544
 40
0.3903056898159848
 40
0.4074501018237195
 40
0.4245775812621542
 40
0.4416908358730896
 40
0.4587928098979758
 40
0.4758866005303483
 40
0.4929754028624192
 40
0.5100624744701471
 40
0.5271510299375302
 40
0.5442433698865627
 40
0.5613428280216571
 40
0.5784527349323823
 40
0.595576394038753
 40
0.6127170444016757
 40
0.6298778026473857
 40
0.647061574503496
 40
0.6642709238166687
 40
0.6815078837981772
 40
0.6987736920441248
 40
0.7160684285920097
 40
0.7333905368987625
 40
0.750736214716786
 40
0.768098681001766
 40
0.7854649673300077
 40
0.8028161978996808
 40
0.82013042502383
 40
0.8373807738058205
 40
0.8545366570136699
 40
0.871566164176872
 40
0.8884394955605531
 40
0.9051328943318979
 40
0.9216322246719872
 40
0.9379353660793357
 40
0.9540529672058585
 40
0.9700076157784974
 40
0.9858318602017437
 40
1.0
 40
1.0
 40
1.0
 40
1.0
 10
274.1417110302126
 20
-28.22981644484965
 30
0.0
 10
274.2382657183982
 20
-28.28851032180409
 30
0.0
 10
274.5966805665549
 20
-28.50638433073811
 30
0.0
 10
275.2556012317436
 20
-28.81515959396257
 30
0.0
 10
276.113547819017
 20
-29.15445722836354
 30
0.0
 10
277.0040887251259
 20
-29.42085364212103
 30
0.0
 10
277.922270146905
 20
-29.61938416941746
 30
0.0
 10
278.8673281984541
 20
-29.74801934800886
 30
0.0
 10
279.8373531875831
 20
-29.80648406869299
 30
0.0
 10
280.8305462057739
 20
-29.79394227279194
 30
0.0
 10
281.8447186388681
 20
-29.70974761550423
 30
0.0
 10
282.8773116954943
 20
-29.55340212642561
 30
0.0
 10
283.9253480487785
 20
-29.32473961097184
 30
0.0
 10
284.9854893278545
 20
-29.02402134986821
 30
0.0
 10
286.0541428628437
 20
-28.6519975842325
 30
0.0
 10
287.1276020647247
 20
-28.20990487851617
 30
0.0
 10
288.2021833552511
 20
-27.69941339169833
 30
0.0
 10
289.2743333823624
 20
-27.12254297287232
 30
0.0
 10
290.3406390367122
 20
-26.48160442924216
 30
0.0
 10
291.3979022516706
 20
-25.77910308699893
 30
0.0
 10
292.4431605870486
 20
-25.01765815184918
 30
0.0
 10
293.4737081622473
 20
-24.19991240667004
 30
0.0
 10
294.487007422992
 20
-23.32853770467325
 30
0.0
 10
295.4806276911627
 20
-22.40625031324186
 30
0.0
 10
296.4522215869277
 20
-21.43581142448658
 30
0.0
 10
297.3995082708708
 20
-20.42003037904407
 30
0.0
 10
298.3202628801065
 20
-19.36176831608151
 30
0.0
 10
299.2123110117743
 20
-18.26394092638382
 30
0.0
 10
300.0735270163386
 20
-17.12951964978485
 30
0.0
 10
300.9018349718212
 20
-15.9615310840067
 30
0.0
 10
301.6952113909248
 20
-14.7630546267957
 30
0.0
 10
302.4516889010604
 20
-13.53721851441794
 30
0.0
 10
303.1693591429768
 20
-12.28719651535234
 30
0.0
 10
303.8463647275655
 20
-11.0162249410154
 30
0.0
 10
304.4809201197889
 20
-9.727571597498596
 30
0.0
 10
305.0713158820709
 20
-8.42452479404232
 30
0.0
 10
305.6159291623297
 20
-7.110360314693247
 30
0.0
 10
306.1132109403688
 20
-5.788359118840409
 30
0.0
 10
306.5616855349456
 20
-4.461800535340892
 30
0.0
 10
306.9599488853438
 20
-3.13395680612288
 30
0.0
 10
307.3066656857857
 20
-1.808089732570855
 30
0.0
 10
307.6005656403264
 20
-0.4874503273531277
 30
0.0
 10
307.8404393823884
 20
0.8247174533977698
 30
0.0
 10
308.0251350152019
 20
2.12516768740038
 30
0.0
 10
308.1535568133147
 20
3.41063694514572
 30
0.0
 10
308.2246683985767
 20
4.677821256351333
 30
0.0
 10
308.237503623371
 20
5.923345354732173
 30
0.0
 10
308.1911914093131
 20
7.143669421862228
 30
0.0
 10
308.0850127201107
 20
8.335026428396516
 30
0.0
 10
307.9184775761183
 20
9.493448318706452
 30
0.0
 10
307.6914016193012
 20
10.6148146836796
 30
0.0
 10
307.4039844891485
 20
11.69490996982876
 30
0.0
 10
307.0569023925309
 20
12.72946346740643
 30
0.0
 10
306.6513684315618
 20
13.71428612719123
 30
0.0
 10
306.1891470656694
 20
14.6454471235117
 30
0.0
 10
305.6724918862192
 20
15.51942591541779
 30
0.0
 10
305.1040752228976
 20
16.33331025653369
 30
0.0
 10
304.4866941565293
 20
17.08460366543846
 30
0.0
 10
303.8236524903852
 20
17.77212433437202
 30
0.0
 10
303.1166555047461
 20
18.39254073907727
 30
0.0
 10
302.3974676995484
 20
18.93422300497315
 30
0.0
 10
301.8948975023336
 20
19.23582944934886
 30
0.0
 10
301.657487739909
 20
19.37830569386517
 30
0.0
  0
LINE
  5
117
330
1F
100
AcDbEntity
  8
0
  6
Continuous
 62
     7
370
    25
100
AcDbLine
 10
255.0050684097
 20
46.2909239986
 30
0.0
 11
254.8857596228
 21
51.8717153459
 31
0.0
  0
LINE
  5
118
330
1F
100
AcDbEntity
  8
0
  6
Continuous
 62
     7
370
    25
100
AcDbLine
 10
240.8868256943
 20
51.8717153459
 30
0.0
 11
240.7286513863
 21
44.472949228
 31
0.0
  0
LWPOLYLINE
  5
119
330
1F
100
AcDbEntity
  8
0
  6
Continuous
 62
     7
370
    25
100
AcDbPolyline
 90
      112
 70
   128
 43
0.0
 10
222.2440753547
 20
11.8384118878
 10
222.2740876143
 20
13.0799272661
 10
222.3640282547
 20
14.3521171138
 10
222.5136091691
 20
15.6509062232
 10
222.7223512045
 20
16.9721341812
 10
222.9895856974
 20
18.3115686963
 10
223.314456615
 20
19.6649191561
 10
223.695923298
 20
21.0278503708
 10
224.1327637935
 20
22.3959964611
 10
224.6235787697
 20
23.7649748425
 10
225.1667959983
 20
25.1304002646
 10
225.7606753907
 20
26.4878988579
 10
226.4033145722
 20
27.8331221455
 10
227.0926549758
 20
29.1617609714
 10
227.8264884363
 20
30.4695593049
 10
228.6024642639
 20
31.7523278738
 10
229.4180967741
 20
33.0059575836
 10
230.27077325
 20
34.2264326804
 10
231.157762312
 20
35.4098436145
 10
232.0762226665
 20
36.5523995639
 10
233.0232122083
 20
37.6504405775
 10
233.9956974442
 20
38.7004492988
 10
234.9905632109
 20
39.6990622334
 10
236.0046226535
 20
40.6430805231
 10
237.0346274337
 20
41.5294801925
 10
238.0772781359
 20
42.3554218363
 10
239.1292348353
 20
43.1182597145
 10
240.1871277977
 20
43.8155502274
 10
241.2475682729
 20
44.4450597432
 10
242.3071593504
 20
45.0047717532
 10
243.3625068405
 20
45.492893331
 10
244.4102301471
 20
45.9078608761
 10
245.4469730964
 20
46.2483451224
 10
246.4694146884
 20
46.5132553961
 10
247.4742797344
 20
46.7017431098
 10
248.4583493486
 20
46.8132044805
 10
249.4184712594
 20
46.8472824638
 10
250.3515699069
 20
46.8038678977
 10
251.2546562948
 20
46.6830998521
 10
252.1248375652
 20
46.4853651836
 10
252.959326265
 20
46.2112972957
 10
253.7554492755
 20
45.8617741107
 10
254.5106563746
 20
45.4379152566
 10
255.2225284063
 20
44.9410784811
 10
255.8887850299
 20
44.3728553023
 10
256.5072920245
 20
43.7350659102
 10
257.0760681258
 20
43.0297533366
 10
257.5932913724
 20
42.2591769102
 10
258.0573049424
 20
41.4258050198
 10
258.4666224604
 20
40.5323072065
 10
258.819932759
 20
39.5815456135
 10
259.1161040787
 20
38.5765658166
 10
259.3541876937
 20
37.5205870691
 10
259.5334209502
 20
36.4169919893
 10
259.6532297102
 20
35.2693157249
 10
259.7132301899
 20
34.0812346291
 10
259.7132301899
 20
32.8565544837
 10
259.6532297102
 20
31.5991983084
 10
259.5334209502
 20
30.3131937942
 10
259.3541876937
 20
29.0026604013
 10
259.1161040787
 20
27.671796163
 10
258.819932759
 20
26.324864239
 10
258.4666224604
 20
24.966179258
 10
258.0573049424
 20
23.6000934979
 10
257.5932913724
 20
22.230982943
 10
257.0760681258
 20
20.8632332673
 10
256.5072920245
 20
19.5012257853
 10
255.8887850299
 20
18.1493234175
 10
255.2225284063
 20
16.8118567149
 10
254.5106563746
 20
15.4931099865
 10
253.7554492755
 20
14.1973075757
 10
252.959326265
 20
12.9286003281
 10
252.1248375652
 20
11.6910522956
 10
251.2546562948
 20
10.4886277177
 10
250.3515699069
 20
9.3251783228
 10
249.4184712594
 20
8.2044309899
 10
248.4583493486
 20
7.1299758108
 10
247.4742797344
 20
6.1052545893
 10
246.4694146884
 20
5.1335498163
 10
245.4469730964
 20
4.2179741553
 10
244.4102301471
 20
3.361460471
 10
243.3625068405
 20
2.5667524351
 10
242.3071593504
 20
1.8363957369
 10
241.2475682729
 20
1.1727299291
 10
240.1871277977
 20
0.5778809334
 10
239.1292348353
 20
0.0537542305
 10
238.0772781359
 20
-0.3979712438
 10
237.0346274337
 20
-0.7758484766
 10
236.0046226535
 20
-1.0786670133
 10
234.9905632109
 20
-1.3054568347
 10
233.9956974442
 20
-1.4554914647
 10
233.0232122083
 20
-1.5282902971
 10
232.0762226665
 20
-1.5236201353
 10
231.157762312
 20
-1.4414959394
 10
230.27077325
 20
-1.2821807777
 10
229.4180967741
 20
-1.0461849849
 10
228.6024642639
 20
-0.7342645265
 10
227.8264884363
 20
-0.3474185779
 10
227.0926549758
 20
0.1131136768
 10
226.4033145722
 20
0.6458570138
 10
225.7606753907
 20
1.2491048958
 10
225.1667959983
 20
1.9209249378
 10
224.6235787697
 20
2.6591650977
 10
224.1327637935
 20
3.4614605697
 10
223.695923298
 20
4.3252413596
 10
223.314456615
 20
5.2477405171
 10
222.9895856974
 20
6.2260029993
 10
222.7223512045
 20
7.2568951365
 10
222.5136091691
 20
8.3371146703
 10
222.3640282547
 20
9.4632013321
 10
222.2740876143
 20
10.6315479267
 10
222.2440753547
 20
11.8384118878
  0
LINE
  5
11A
330
1F
100
AcDbEntity
  8
0
  6
Continuous
 62
     7
370
    25
100
AcDbLine
 10
255.4383944111
 20
46.063959029
 30
0.0
 11
255.5563689741
 21
45.9946750215
 31
0.0
  0
LINE
  5
11B
330
1F
100
AcDbEntity
  8
0
  6
Continuous
 62
     7
370
    25
100
AcDbLine
 10
227.9406292636
 20
-1.568728402
 30
0.0
 11
227.8566615237
 21
-1.5196592269
 31
0.0
  0
SPLINE
  5
11C
330
1F
100
AcDbEntity
  8
0
  6
Continuous
 62
     7
370
    25
100
AcDbSpline
210
0.0
220
0.0
230
1.0
 70
     8
 71
     3
 72
    27
 73
    23
 74
     0
 42
0.00000001
 43
0.00000001
 40
0.0
 40
0.0
 40
0.0
 40
0.0
 40
0.0072161789003753
 40
0.0603551939541046
 40
0.1134883193418724
 40
0.1666917591526361
 40
0.2198864955468616
 40
0.2717510793529234
 40
0.3236179379486624
 40
0.3746975161792784
 40
0.4257852296793896
 40
0.4781869336098457
 40
0.5305910568577898
 40
0.584460057532054
 40
0.6383218159478261
 40
0.691676565902055
 40
0.7450259189876708
 40
0.7968635270108942
 40
0.8487053862964952
 40
0.9004065921082619
 40
0.9521144249700738
 40
1.0
 40
1.0
 40
1.0
 40
1.0
 10
255.11248068769
 20
-3.45308075831984
 30
0.0
 10
255.1164817670659
 20
-3.415581181395911
 30
0.0
 10
255.149946281332
 20
-3.101939533969072
 30
0.0
 10
255.0336932024874
 20
-2.507970224421324
 30
0.0
 10
254.7361076996021
 20
-1.709320753306935
 30
0.0
 10
254.2225134014445
 20
-0.9776954686330497
 30
0.0
 10
253.5405090540547
 20
-0.3447243843822806
 30
0.0
 10
252.7015621487821
 20
0.1621576703249618
 30
0.0
 10
251.7473840207501
 20
0.5362141733807266
 30
0.0
 10
250.6958043778751
 20
0.7702273072512817
 30
0.0
 10
249.5716065679636
 20
0.8753906440352941
 30
0.0
 10
248.3947119064622
 20
0.8504818990013908
 30
0.0
 10
247.1844915201868
 20
0.7072084730503463
 30
0.0
 10
245.981706656494
 20
0.4525428913160889
 30
0.0
 10
244.8225948054914
 20
0.1044276470057205
 30
0.0
 10
243.7539591382113
 20
-0.3186305301447981
 30
0.0
 10
242.81137252255
 20
-0.7924495621199762
 30
0.0
 10
242.0221991995322
 20
-1.301290428235976
 30
0.0
 10
241.3961905407261
 20
-1.830194321246733
 30
0.0
 10
240.9544888674022
 20
-2.373126043443528
 30
0.0
 10
240.6845028166701
 20
-2.909596508803498
 30
0.0
 10
240.6673662814795
 20
-3.263895690791188
 30
0.0
 10
240.6591268521941
 20
-3.434246524458364
 30
0.0
  0
LWPOLYLINE
  5
11D
330
1F
100
AcDbEntity
  8
0
  6
Continuous
 62
     7
370
    25
100
AcDbPolyline
 90
       98
 70
   128
 43
0.0
 10
226.6988480762
 20
14.41009744
 10
226.7288031771
 20
15.4950518283
 10
226.8185428378
 20
16.6100409643
 10
226.9676906589
 20
17.7503881959
 10
227.1756210627
 20
18.9113105107
 10
227.4414619167
 20
20.0879385969
 10
227.7640981921
 20
21.2753372674
 10
228.1421766401
 20
22.4685261597
 10
228.5741114684
 20
23.6625006248
 10
229.0580909922
 20
24.8522527188
 10
229.5920852332
 20
26.032792208
 10
230.1738544339
 20
27.1991674996
 10
230.8009584522
 20
28.3464864102
 10
231.4707669959
 20
29.4699366856
 10
232.1804706551
 20
30.5648061849
 10
232.927092686
 20
31.6265026449
 10
233.7075014965
 20
32.6505729417
 10
234.5184237807
 20
33.6327217687
 10
235.3564582487
 20
34.5688296522
 10
236.2180898929
 20
35.4549702305
 10
237.0997047305
 20
36.2874267221
 10
237.9976049626
 20
37.0627075151
 10
238.9080244836
 20
37.7775608125
 10
239.8271446777
 20
38.4289882712
 10
240.7511104352
 20
39.0142575778
 10
241.6760463228
 20
39.5309139097
 10
242.5980728378
 20
39.9767902306
 10
243.5133226807
 20
40.3500163802
 10
244.4179569755
 20
40.6490269184
 10
245.3081813716
 20
40.872567691
 10
246.1802619586
 20
41.0197010904
 10
247.0305409273
 20
41.089809988
 10
247.8554519122
 20
41.0826003226
 10
248.6515349502
 20
40.9981023342
 10
249.4154509921
 20
40.8366704366
 10
250.1439959087
 20
40.5989817314
 10
250.8341139293
 20
40.2860331675
 10
251.4829104593
 20
39.89913736
 10
252.0876642204
 20
39.4399170844
 10
252.6458386652
 20
38.9102984701
 10
253.1550926161
 20
38.3125029216
 10
253.6132900851
 20
37.6490378012
 10
254.0185092328
 20
36.9226859122
 10
254.3690504291
 20
36.1364938268
 10
254.6634433826
 20
35.2937591079
 10
254.9004533068
 20
34.3980164777
 10
255.0790860998
 20
33.4530229921
 10
255.1985925136
 20
32.4627422823
 10
255.2584712967
 20
31.4313279296
 10
255.2584712967
 20
30.3631060443
 10
255.1985925136
 20
29.2625571203
 10
255.0790860998
 20
28.1342972421
 10
254.9004533068
 20
26.9830587238
 10
254.6634433826
 20
25.8136702598
 10
254.3690504291
 20
24.6310366717
 10
254.0185092328
 20
23.4401183359
 10
253.6132900851
 20
22.2459103776
 10
253.1550926161
 20
21.0534217201
 10
252.6458386652
 20
19.8676540752
 10
252.0876642204
 20
18.6935809645
 10
251.4829104593
 20
17.5361268586
 10
250.8341139293
 20
16.4001465224
 10
250.1439959087
 20
15.2904046521
 10
249.4154509921
 20
14.2115558907
 10
248.6515349502
 20
13.168125305
 10
247.8554519122
 20
12.1644894054
 10
247.0305409273
 20
11.2048577897
 10
246.1802619586
 20
10.2932554863
 10
245.3081813716
 20
9.4335060721
 10
244.4179569755
 20
8.629215635
 10
243.5133226807
 20
7.8837576485
 10
242.5980728378
 20
7.2002588226
 10
241.6760463228
 20
6.5815859888
 10
240.7511104352
 20
6.0303340759
 10
239.8271446777
 20
5.5488152262
 10
238.9080244836
 20
5.1390490969
 10
237.9976049626
 20
4.8027543896
 10
237.0997047305
 20
4.5413416413
 10
236.2180898929
 20
4.3559073078
 10
235.3564582487
 20
4.2472291651
 10
234.5184237807
 20
4.2157630472
 10
233.7075014965
 20
4.2616409339
 10
232.927092686
 20
4.3846703973
 10
232.1804706551
 20
4.5843354092
 10
231.4707669959
 20
4.8597985052
 10
230.8009584522
 20
5.2099042972
 10
230.1738544339
 20
5.6331843199
 10
229.5920852332
 20
6.1278631897
 10
229.0580909922
 20
6.6918660517
 10
228.5741114684
 20
7.3228272818
 10
228.1421766401
 20
8.0181004092
 10
227.7640981921
 20
8.7747692169
 10
227.4414619167
 20
9.589659973
 10
227.1756210627
 20
10.4593547424
 10
226.9676906589
 20
11.3802057231
 10
226.8185428378
 20
12.3483505459
 10
226.7288031771
 20
13.359728475
 10
226.6988480762
 20
14.41009744
  0
LWPOLYLINE
  5
11E
330
1F
100
AcDbEntity
  8
0
  6
Continuous
 62
     7
370
    25
100
AcDbPolyline
 90
       58
 70
   128
 43
0.0
 10
252.8360401269
 20
-17.338695463
 10
252.2614855989
 20
-17.635693422
 10
251.6338221555
 20
-17.8944009182
 10
250.9606687805
 20
-18.1116775931
 10
250.250196644
 20
-18.2848860021
 10
249.5110299154
 20
-18.4119236299
 10
248.7521410774
 20
-18.4912484116
 10
247.9827420126
 20
-18.5218974519
 10
247.2121721832
 20
-18.503498713
 10
246.4497852632
 20
-18.4362755306
 10
245.704835597
 20
-18.3210439031
 10
244.9863658645
 20
-18.1592025864
 10
244.3030973149
 20
-17.9527161148
 10
243.6633239029
 20
-17.7040909543
 10
243.074811611
 20
-17.4163450777
 10
242.5447041812
 20
-17.0929713301
 10
242.0794363996
 20
-16.7378950306
 10
241.6846559868
 20
-16.3554263247
 10
241.3651550422
 20
-15.9502078642
 10
241.1248118745
 20
-15.5271584524
 10
240.9665439242
 20
-15.091413336
 10
240.8922723498
 20
-14.6482618705
 10
240.9028987076
 20
-14.2030833144
 10
240.9982940081
 20
-13.7612815322
 10
241.1773002813
 20
-13.3282193991
 10
241.4377446339
 20
-12.9091537029
 10
241.776465624
 20
-12.5091713333
 10
242.1893516377
 20
-12.1331275345
 10
242.6713907981
 20
-11.7855869688
 10
243.2167318028
 20
-11.4707683079
 10
243.8187549507
 20
-11.1924930238
 10
244.4701524964
 20
-10.9541390016
 10
245.1630173561
 20
-10.7585995362
 10
245.8889390888
 20
-10.6082482118
 10
246.6391059882
 20
-10.5049100898
 10
247.4044120443
 20
-10.4498395551
 10
248.1755674783
 20
-10.4437050893
 10
248.9432115078
 20
-10.4865811566
 10
249.6980259743
 20
-10.5779472995
 10
250.4308484525
 20
-10.7166944569
 10
251.1327834703
 20
-10.9011384262
 10
251.7953104875
 20
-11.1290403075
 10
252.4103873236
 20
-11.3976336806
 10
252.9705477789
 20
-11.7036581859
 10
253.4689922644
 20
-12.0433991005
 10
253.8996703391
 20
-12.4127324298
 10
254.2573541548
 20
-12.8071749675
 10
254.5377019144
 20
-13.2219387156
 10
254.7373105758
 20
-13.651989004
 10
254.8537571604
 20
-14.0921056047
 10
254.8856281643
 20
-14.5369460986
 10
254.8325367167
 20
-14.9811107244
 10
254.6951272759
 20
-15.4192079254
 10
254.4750678063
 20
-15.845919795
 10
254.1750295318
 20
-16.2560666292
 10
253.7986545106
 20
-16.6446698009
 10
253.3505114256
 20
-17.0070121941
 10
252.8360401269
 20
-17.338695463
  0
LWPOLYLINE
  5
11F
330
1F
100
AcDbEntity
  8
0
  6
Continuous
 62
     7
370
    25
100
AcDbPolyline
 90
       48
 70
   128
 43
0.0
 10
251.2450498692
 20
-16.4202363372
 10
250.7674027957
 20
-16.661375171
 10
250.2383422437
 20
-16.863609924
 10
249.667309311
 20
-17.0233317124
 10
249.064494094
 20
-17.1376902971
 10
248.4406538444
 20
-17.2046449464
 10
247.8069210064
 20
-17.223000853
 10
247.1746045574
 20
-17.1924304553
 10
246.5549881994
 20
-17.1134792828
 10
245.959129001
 20
-16.987556221
 10
245.3976600837
 20
-16.81690837
 10
244.8806008737
 20
-16.6045809447
 10
244.4171783048
 20
-16.354362933
 10
244.0156621637
 20
-16.0707194813
 10
243.6832175155
 20
-15.7587122137
 10
243.4257768428
 20
-15.4239089073
 10
243.2479341805
 20
-15.072284135
 10
243.1528631352
 20
-14.7101126492
 10
243.1422602518
 20
-14.3438574086
 10
243.2163147391
 20
-13.9800542467
 10
243.373705093
 20
-13.6251952396
 10
243.6116226789
 20
-13.2856128546
 10
243.9258218519
 20
-12.9673669474
 10
244.3106957202
 20
-12.6761366238
 10
244.7593762007
 20
-12.4171188958
 10
245.2638565793
 20
-12.1949359409
 10
245.815134392
 20
-12.0135526192
 10
246.403372073
 20
-11.8762057203
 10
247.0180725069
 20
-11.785346203
 10
247.6482663501
 20
-11.7425954575
 10
248.2827077783
 20
-11.7487163718
 10
248.9100751694
 20
-11.803599718
 10
249.5191731372
 20
-11.9062661017
 10
250.0991323143
 20
-12.0548834386
 10
250.6396033153
 20
-12.246799649
 10
251.1309414224
 20
-12.4785899834
 10
251.5643786954
 20
-12.7461181379
 10
251.932180436
 20
-13.0446100663
 10
252.2277832133
 20
-13.3687391729
 10
252.4459119888
 20
-13.7127213663
 10
252.5826742494
 20
-14.070418276
 10
252.6356294692
 20
-14.4354467922
 10
252.6038326611
 20
-14.8012929723
 10
252.4878512399
 20
-15.1614282827
 10
252.2897548968
 20
-15.5094261001
 10
252.0130786658
 20
-15.8390763953
 10
251.6627598406
 20
-16.144496551
 10
251.2450498692
 20
-16.4202363372
  0
LWPOLYLINE
  5
120
330
1F
100
AcDbEntity
  8
0
  6
Continuous
 62
     7
370
    25
100
AcDbPolyline
 90
       30
 70
   128
 43
0.0
 10
240.8868256943
 20
51.8717153459
 10
240.9028987076
 20
52.1000306108
 10
240.9982940081
 20
52.5418323929
 10
241.1773002813
 20
52.974894526
 10
241.4377446339
 20
53.3939602222
 10
241.776465624
 20
53.7939425918
 10
242.1893516377
 20
54.1699863906
 10
242.6713907981
 20
54.5175269563
 10
243.2167318028
 20
54.8323456173
 10
243.8187549507
 20
55.1106209013
 10
244.4701524964
 20
55.3489749235
 10
245.1630173561
 20
55.5445143889
 10
245.8889390888
 20
55.6948657133
 10
246.6391059882
 20
55.7982038353
 10
247.4044120443
 20
55.85327437
 10
248.1755674783
 20
55.8594088358
 10
248.9432115078
 20
55.8165327685
 10
249.6980259743
 20
55.7251666256
 10
250.4308484525
 20
55.5864194682
 10
251.1327834703
 20
55.4019754989
 10
251.7953104875
 20
55.1740736176
 10
252.4103873236
 20
54.9054802445
 10
252.9705477789
 20
54.5994557392
 10
253.4689922644
 20
54.2597148246
 10
253.8996703391
 20
53.8903814954
 10
254.2573541548
 20
53.4959389576
 10
254.5377019144
 20
53.0811752095
 10
254.7373105758
 20
52.6511249211
 10
254.8537571604
 20
52.2110083204
 10
254.8857596228
 20
51.8717153459
  0
LWPOLYLINE
  5
121
330
1F
100
AcDbEntity
  8
0
  6
Continuous
 62
     7
370
    25
100
AcDbPolyline
 90
       58
 70
   128
 43
0.0
 10
255.5563689741
 20
45.9946750215
 10
255.9089552888
 20
45.7730477227
 10
256.6241205377
 20
45.2496897632
 10
257.293123767
 20
44.6552337097
 10
257.913897126
 20
43.9915169919
 10
258.4845218398
 20
43.2605911201
 10
259.0032341403
 20
42.4647153443
 10
259.4684307173
 20
41.6063496709
 10
259.8786736749
 20
40.688147259
 10
260.2326949756
 20
39.7129462197
 10
260.52940036
 20
38.6837608434
 10
260.7678727285
 20
37.6037722832
 10
260.9473749769
 20
36.4763187218
 10
261.067352274
 20
35.3048850536
 10
261.1274337768
 20
34.0930921129
 10
261.1274337768
 20
32.8446854823
 10
261.067352274
 20
31.5635239151
 10
260.9473749769
 20
30.2535674082
 10
260.7678727285
 20
28.9188649623
 10
260.52940036
 20
27.5635420659
 10
260.2326949756
 20
26.1917879447
 10
259.8786736749
 20
24.8078426118
 10
259.4684307173
 20
23.4159837632
 10
259.0032341403
 20
22.0205135545
 10
258.4845218398
 20
20.6257453044
 10
257.913897126
 20
19.2359901616
 10
257.293123767
 20
17.8555437795
 10
256.6241205377
 20
16.4886730388
 10
255.9089552888
 20
15.1396028587
 10
255.149838555
 20
13.8125031377
 10
254.3491167228
 20
12.5114758651
 10
253.5092647774
 20
11.2405424415
 10
252.632878653
 20
10.0036312494
 10
251.7226672088
 20
8.8045655104
 10
250.7814438565
 20
7.6470514679
 10
249.8121178633
 20
6.5346669315
 10
248.8176853603
 20
5.4708502182
 10
247.8012200815
 20
4.4588895242
 10
246.7658638627
 20
3.5019127623
 10
245.7148169308
 20
2.6028778927
 10
244.6513280115
 20
1.7645637807
 10
243.5786842881
 20
0.9895616071
 10
242.500201241
 20
0.2802668592
 10
241.4192123993
 20
-0.3611280734
 10
240.3390590378
 20
-0.9326406759
 10
239.2630798484
 20
-1.4325044356
 10
238.1946006213
 20
-1.8591743021
 10
237.1369239644
 20
-2.2113314635
 10
236.0933190958
 20
-2.4878874221
 10
235.0670117383
 20
-2.6879873592
 10
234.061174149
 20
-2.8110127775
 10
233.0789153143
 20
-2.8565834124
 10
232.1232713401
 20
-2.8245584077
 10
231.197196067
 20
-2.7150367508
 10
230.3035519407
 20
-2.528356967
 10
229.4451011639
 20
-2.2650960727
 10
228.6244971587
 20
-1.9260677923
 10
227.9406292636
 20
-1.568728402
  0
LWPOLYLINE
  5
122
330
1F
100
AcDbEntity
  8
0
  6
Continuous
 62
     7
370
    25
100
AcDbPolyline
 90
       58
 70
   128
 43
0.0
 10
301.654782506
 20
19.3838060848
 10
302.1253433837
 20
19.0928947785
 10
302.8405086326
 20
18.569536819
 10
303.5095118619
 20
17.9750807655
 10
304.1302852209
 20
17.3113640477
 10
304.7009099348
 20
16.5804381759
 10
305.2196222352
 20
15.7845624001
 10
305.6848188122
 20
14.9261967267
 10
306.0950617698
 20
14.0079943148
 10
306.4490830706
 20
13.0327932755
 10
306.7457884549
 20
12.0036078992
 10
306.9842608235
 20
10.923619339
 10
307.1637630719
 20
9.7961657776
 10
307.283740369
 20
8.6247321094
 10
307.3438218717
 20
7.4129391687
 10
307.3438218717
 20
6.1645325381
 10
307.283740369
 20
4.8833709709
 10
307.1637630719
 20
3.573414464
 10
306.9842608235
 20
2.2387120181
 10
306.7457884549
 20
0.8833891218
 10
306.4490830706
 20
-0.4883649995
 10
306.0950617698
 20
-1.8723103323
 10
305.6848188122
 20
-3.264169181
 10
305.2196222352
 20
-4.6596393897
 10
304.7009099348
 20
-6.0544076397
 10
304.1302852209
 20
-7.4441627826
 10
303.5095118619
 20
-8.8246091647
 10
302.8405086326
 20
-10.1914799053
 10
302.1253433837
 20
-11.5405500855
 10
301.36622665
 20
-12.8676498065
 10
300.5655048178
 20
-14.1686770791
 10
299.7256528723
 20
-15.4396105027
 10
298.8492667479
 20
-16.6765216948
 10
297.9390553038
 20
-17.8755874338
 10
296.9978319514
 20
-19.0331014763
 10
296.0285059582
 20
-20.1454860126
 10
295.0340734553
 20
-21.209302726
 10
294.0176081764
 20
-22.2212634199
 10
292.9822519577
 20
-23.1782401819
 10
291.9312050257
 20
-24.0772750515
 10
290.8677161064
 20
-24.9155891635
 10
289.7950723831
 20
-25.6905913371
 10
288.7165893359
 20
-26.399886085
 10
287.6356004943
 20
-27.0412810176
 10
286.5554471327
 20
-27.6127936201
 10
285.4794679434
 20
-28.1126573798
 10
284.4109887162
 20
-28.5393272463
 10
283.3533120594
 20
-28.8914844077
 10
282.3097071908
 20
-29.1680403662
 10
281.2833998332
 20
-29.3681403034
 10
280.2775622439
 20
-29.4911657217
 10
279.2953034093
 20
-29.5367363566
 10
278.339659435
 20
-29.5047113518
 10
277.4135841619
 20
-29.395189695
 10
276.5199400356
 20
-29.2085099112
 10
275.6614892588
 20
-28.9452490169
 10
274.8408852537
 20
-28.6062207365
 10
274.1570173585
 20
-28.2488813462
  0
ENDSEC
  0
SECTION
  2
OBJECTS
  0
DICTIONARY
  5
C
330
0
100
AcDbDictionary
281
     1
  3
ACAD_GROUP
350
D
  3
ACAD_LAYOUT
350
1A
  3
ACAD_MLINESTYLE
350
17
  3
ACAD_PLOTSETTINGS
350
19
  3
ACAD_PLOTSTYLENAME
350
E
  3
ACAD_SCALELIST
350
47
  3
DWGPROPS
350
123
  0
DICTIONARY
  5
D
102
{ACAD_REACTORS
330
C
102
}
330
C
100
AcDbDictionary
281
     1
  0
DICTIONARY
  5
1A
102
{ACAD_REACTORS
330
C
102
}
330
C
100
AcDbDictionary
281
     1
  3
Layout1
350
1E
  3
Layout2
350
26
  3
Model
350
22
  0
DICTIONARY
  5
17
102
{ACAD_REACTORS
330
C
102
}
330
C
100
AcDbDictionary
281
     1
  3
Standard
350
18
  0
DICTIONARY
  5
19
102
{ACAD_REACTORS
330
C
102
}
330
C
100
AcDbDictionary
281
     1
  0
ACDBDICTIONARYWDFLT
  5
E
102
{ACAD_REACTORS
330
C
102
}
330
C
100
AcDbDictionary
281
     1
  3
Normal
350
F
100
AcDbDictionaryWithDefault
340
F
  0
DICTIONARY
  5
47
102
{ACAD_REACTORS
330
C
102
}
330
C
100
AcDbDictionary
281
     1
  3
A0
350
48
  3
A1
350
49
  3
A2
350
4A
  3
A3
350
4B
  3
A4
350
4C
  3
A5
350
4D
  3
A6
350
4E
  3
A7
350
4F
  3
A8
350
50
  3
A9
350
51
  3
B0
350
52
  3
B1
350
53
  3
B2
350
54
  3
B3
350
55
  3
B4
350
56
  3
B5
350
57
  3
B6
350
58
  3
B7
350
59
  3
B8
350
5A
  3
B9
350
5B
  3
C0
350
5C
  3
C1
350
5D
  3
C2
350
5E
  3
C3
350
5F
  3
C4
350
60
  3
C5
350
61
  3
C6
350
62
  3
C7
350
63
  3
C8
350
64
  3
C9
350
65
  3
D0
350
66
  3
D1
350
67
  3
D2
350
68
  0
XRECORD
  5
123
102
{ACAD_REACTORS
330
C
102
}
330
C
100
AcDbXrecord
280
     1
  1
DWGPROPS COOKIE
  2

  3

  4

  6

  7

  8
b.kav
  9

300
=
301
=
302
=
303
=
304
=
305
=
306
=
307
=
308
=
309
=
 40
0.0
 41
2460087.372621111
 42
2460087.372621424
  1

 90
        0
  0
LAYOUT
  5
1E
102
{ACAD_REACTORS
330
1A
102
}
330
1A
100
AcDbPlotSettings
  1

  2
none_device
  4

  6

 40
0.0
 41
0.0
 42
0.0
 43
0.0
 44
0.0
 45
0.0
 46
0.0
 47
0.0
 48
0.0
 49
0.0
140
0.0
141
0.0
142
1.0
143
1.0
 70
   688
 72
     1
 73
     0
 74
     5
  7

 75
    16
147
1.0
148
0.0
149
0.0
100
AcDbLayout
  1
Layout1
 70
     1
 71
     1
 10
0.0
 20
0.0
 11
420.0
 21
297.0
 12
0.0
 22
0.0
 32
0.0
 14
1.0000000000E+20
 24
1.0000000000E+20
 34
1.0000000000E+20
 15
-1.0000000000E+20
 25
-1.0000000000E+20
 35
-1.0000000000E+20
146
0.0
 13
0.0
 23
0.0
 33
0.0
 16
1.0
 26
0.0
 36
0.0
 17
0.0
 27
1.0
 37
0.0
 76
     0
330
1B
  0
LAYOUT
  5
26
102
{ACAD_REACTORS
330
1A
102
}
330
1A
100
AcDbPlotSettings
  1

  2
none_device
  4

  6

 40
0.0
 41
0.0
 42
0.0
 43
0.0
 44
0.0
 45
0.0
 46
0.0
 47
0.0
 48
0.0
 49
0.0
140
0.0
141
0.0
142
1.0
143
1.0
 70
   688
 72
     1
 73
     0
 74
     5
  7

 75
    16
147
1.0
148
0.0
149
0.0
100
AcDbLayout
  1
Layout2
 70
     1
 71
     2
 10
0.0
 20
0.0
 11
0.0
 21
0.0
 12
0.0
 22
0.0
 32
0.0
 14
0.0
 24
0.0
 34
0.0
 15
0.0
 25
0.0
 35
0.0
146
0.0
 13
0.0
 23
0.0
 33
0.0
 16
1.0
 26
0.0
 36
0.0
 17
0.0
 27
1.0
 37
0.0
 76
     0
330
23
  0
LAYOUT
  5
22
102
{ACAD_REACTORS
330
1A
102
}
330
1A
100
AcDbPlotSettings
  1

  2
none_device
  4
Letter_(8.50_x_11.00_Inches)
  6

 40
6.35
 41
6.35
 42
6.35000508
 43
6.35000508
 44
215.9
 45
279.4
 46
0.0
 47
0.0
 48
0.0
 49
0.0
140
0.0
141
0.0
142
1.0
143
1.0
 70
  1712
 72
     1
 73
     0
 74
     0
  7

 75
     0
147
1.0
148
0.0
149
0.0
100
AcDbLayout
  1
Model
 70
     1
 71
     0
 10
0.0
 20
0.0
 11
279.4
 21
215.9
 12
0.0
 22
0.0
 32
0.0
 14
0.0
 24
0.0
 34
0.0
 15
279.4
 25
215.9
 35
0.0
146
0.0
 13
0.0
 23
0.0
 33
0.0
 16
1.0
 26
0.0
 36
0.0
 17
0.0
 27
1.0
 37
0.0
 76
     0
330
1F
331
29
  0
MLINESTYLE
  5
18
102
{ACAD_REACTORS
330
17
102
}
330
17
100
AcDbMlineStyle
  2
Standard
 70
     0
  3

 62
   256
 51
90.0
 52
90.0
 71
     2
 49
0.5
 62
   256
  6
BYLAYER
 49
-0.5
 62
   256
  6
BYLAYER
  0
ACDBPLACEHOLDER
  5
F
102
{ACAD_REACTORS
330
E
102
}
330
E
  0
SCALE
  5
48
102
{ACAD_REACTORS
330
47
102
}
330
47
100
AcDbScale
 70
     0
300
1:1
140
1.0
141
1.0
290
     1
  0
SCALE
  5
49
102
{ACAD_REACTORS
330
47
102
}
330
47
100
AcDbScale
 70
     0
300
1:2
140
1.0
141
2.0
290
     0
  0
SCALE
  5
4A
102
{ACAD_REACTORS
330
47
102
}
330
47
100
AcDbScale
 70
     0
300
1:4
140
1.0
141
4.0
290
     0
  0
SCALE
  5
4B
102
{ACAD_REACTORS
330
47
102
}
330
47
100
AcDbScale
 70
     0
300
1:5
140
1.0
141
5.0
290
     0
  0
SCALE
  5
4C
102
{ACAD_REACTORS
330
47
102
}
330
47
100
AcDbScale
 70
     0
300
1:8
140
1.0
141
8.0
290
     0
  0
SCALE
  5
4D
102
{ACAD_REACTORS
330
47
102
}
330
47
100
AcDbScale
 70
     0
300
1:10
140
1.0
141
10.0
290
     0
  0
SCALE
  5
4E
102
{ACAD_REACTORS
330
47
102
}
330
47
100
AcDbScale
 70
     0
300
1:16
140
1.0
141
16.0
290
     0
  0
SCALE
  5
4F
102
{ACAD_REACTORS
330
47
102
}
330
47
100
AcDbScale
 70
     0
300
1:20
140
1.0
141
20.0
290
     0
  0
SCALE
  5
50
102
{ACAD_REACTORS
330
47
102
}
330
47
100
AcDbScale
 70
     0
300
1:30
140
1.0
141
30.0
290
     0
  0
SCALE
  5
51
102
{ACAD_REACTORS
330
47
102
}
330
47
100
AcDbScale
 70
     0
300
1:40
140
1.0
141
40.0
290
     0
  0
SCALE
  5
52
102
{ACAD_REACTORS
330
47
102
}
330
47
100
AcDbScale
 70
     0
300
1:50
140
1.0
141
50.0
290
     0
  0
SCALE
  5
53
102
{ACAD_REACTORS
330
47
102
}
330
47
100
AcDbScale
 70
     0
300
1:100
140
1.0
141
100.0
290
     0
  0
SCALE
  5
54
102
{ACAD_REACTORS
330
47
102
}
330
47
100
AcDbScale
 70
     0
300
2:1
140
2.0
141
1.0
290
     0
  0
SCALE
  5
55
102
{ACAD_REACTORS
330
47
102
}
330
47
100
AcDbScale
 70
     0
300
4:1
140
4.0
141
1.0
290
     0
  0
SCALE
  5
56
102
{ACAD_REACTORS
330
47
102
}
330
47
100
AcDbScale
 70
     0
300
8:1
140
8.0
141
1.0
290
     0
  0
SCALE
  5
57
102
{ACAD_REACTORS
330
47
102
}
330
47
100
AcDbScale
 70
     0
300
10:1
140
10.0
141
1.0
290
     0
  0
SCALE
  5
58
102
{ACAD_REACTORS
330
47
102
}
330
47
100
AcDbScale
 70
     0
300
100:1
140
100.0
141
1.0
290
     0
  0
SCALE
  5
59
102
{ACAD_REACTORS
330
47
102
}
330
47
100
AcDbScale
 70
     0
300
1/128" = 1'-0"
140
0.0078125
141
12.0
290
     0
  0
SCALE
  5
5A
102
{ACAD_REACTORS
330
47
102
}
330
47
100
AcDbScale
 70
     0
300
1/64" = 1'-0"
140
0.015625
141
12.0
290
     0
  0
SCALE
  5
5B
102
{ACAD_REACTORS
330
47
102
}
330
47
100
AcDbScale
 70
     0
300
1/32" = 1'-0"
140
0.03125
141
12.0
290
     0
  0
SCALE
  5
5C
102
{ACAD_REACTORS
330
47
102
}
330
47
100
AcDbScale
 70
     0
300
1/16" = 1'-0"
140
0.0625
141
12.0
290
     0
  0
SCALE
  5
5D
102
{ACAD_REACTORS
330
47
102
}
330
47
100
AcDbScale
 70
     0
300
3/32" = 1'-0"
140
0.09375
141
12.0
290
     0
  0
SCALE
  5
5E
102
{ACAD_REACTORS
330
47
102
}
330
47
100
AcDbScale
 70
     0
300
1/8" = 1'-0"
140
0.125
141
12.0
290
     0
  0
SCALE
  5
5F
102
{ACAD_REACTORS
330
47
102
}
330
47
100
AcDbScale
 70
     0
300
3/16" = 1'-0"
140
0.1875
141
12.0
290
     0
  0
SCALE
  5
60
102
{ACAD_REACTORS
330
47
102
}
330
47
100
AcDbScale
 70
     0
300
1/4" = 1'-0"
140
0.25
141
12.0
290
     0
  0
SCALE
  5
61
102
{ACAD_REACTORS
330
47
102
}
330
47
100
AcDbScale
 70
     0
300
3/8" = 1'-0"
140
0.375
141
12.0
290
     0
  0
SCALE
  5
62
102
{ACAD_REACTORS
330
47
102
}
330
47
100
AcDbScale
 70
     0
300
1/2" = 1'-0"
140
0.5
141
12.0
290
     0
  0
SCALE
  5
63
102
{ACAD_REACTORS
330
47
102
}
330
47
100
AcDbScale
 70
     0
300
3/4" = 1'-0"
140
0.75
141
12.0
290
     0
  0
SCALE
  5
64
102
{ACAD_REACTORS
330
47
102
}
330
47
100
AcDbScale
 70
     0
300
1" = 1'-0"
140
1.0
141
12.0
290
     0
  0
SCALE
  5
65
102
{ACAD_REACTORS
330
47
102
}
330
47
100
AcDbScale
 70
     0
300
1-1/2" = 1'-0"
140
1.5
141
12.0
290
     0
  0
SCALE
  5
66
102
{ACAD_REACTORS
330
47
102
}
330
47
100
AcDbScale
 70
     0
300
3" = 1'-0"
140
3.0
141
12.0
290
     0
  0
SCALE
  5
67
102
{ACAD_REACTORS
330
47
102
}
330
47
100
AcDbScale
 70
     0
300
6" = 1'-0"
140
6.0
141
12.0
290
     0
  0
SCALE
  5
68
102
{ACAD_REACTORS
330
47
102
}
330
47
100
AcDbScale
 70
     0
300
1'-0" = 1'-0"
140
12.0
141
12.0
290
     0
  0
ENDSEC
  0
EOF
